  0
SECTION
  2
HEADER
  9
$ACADVER
  1
AC1009
  9
$INSBASE
 10
0.0
 20
0.0
 30
0.0
  9
$EXTMIN
 10
281.396000
 20
29.897000
 30
-2147483.648000
  9
$EXTMAX
 10
291.896000
 20
44.747000
 30
0.000000
  9
$LIMMIN
 10
280.396000
 20
28.897000
  9
$LIMMAX
 10
292.896000
 20
43.747000
  9
$ORTHOMODE
 70
     0
  9
$REGENMODE
 70
     1
  9
$FILLMODE
 70
     1
  9
$QTEXTMODE
 70
     0
  9
$MIRRTEXT
 70
     1
  9
$DRAGMODE
 70
     2
  9
$LTSCALE
 40
1.0
  9
$OSMODE
 70
     0
  9
$ATTMODE
 70
     1
  9
$TEXTSIZE
 40
0.2
  9
$TRACEWID
 40
0.05
  9
$TEXTSTYLE
  7
STANDARD
  9
$CLAYER
  8
0
  9
$CELTYPE
  6
BYLAYER
  9
$CECOLOR
 62
   256
  9
$DIMSCALE
 40
1.0
  9
$DIMASZ
 40
0.18
  9
$DIMEXO
 40
0.0625
  9
$DIMDLI
 40
0.38
  9
$DIMRND
 40
0.0
  9
$DIMDLE
 40
0.0
  9
$DIMEXE
 40
0.18
  9
$DIMTP
 40
0.0
  9
$DIMTM
 40
0.0
  9
$DIMTXT
 40
0.18
  9
$DIMCEN
 40
0.09
  9
$DIMTSZ
 40
0.0
  9
$DIMTOL
 70
     0
  9
$DIMLIM
 70
     0
  9
$DIMTIH
 70
     1
  9
$DIMTOH
 70
     1
  9
$DIMSE1
 70
     0
  9
$DIMSE2
 70
     0
  9
$DIMTAD
 70
     0
  9
$DIMZIN
 70
     0
  9
$DIMBLK
  1

  9
$DIMASO
 70
     1
  9
$DIMSHO
 70
     1
  9
$DIMPOST
  1

  9
$DIMAPOST
  1

  9
$DIMALT
 70
     0
  9
$DIMALTD
 70
     2
  9
$DIMALTF
 40
25.4
  9
$DIMLFAC
 40
1.0
  9
$DIMTOFL
 70
     0
  9
$DIMTVP
 40
0.0
  9
$DIMTIX
 70
     0
  9
$DIMSOXD
 70
     0
  9
$DIMSAH
 70
     0
  9
$DIMBLK1
  1

  9
$DIMBLK2
  1

  9
$DIMSTYLE
  2
*UNNAMED
  9
$DIMCLRD
 70
     0
  9
$DIMCLRE
 70
     0
  9
$DIMCLRT
 70
     0
  9
$DIMTFAC
 40
1.0
  9
$DIMGAP
 40
0.09
  9
$LUNITS
 70
     2
  9
$LUPREC
 70
     4
  9
$AXISMODE
 70
     0
  9
$AXISUNIT
 10
0.0
 20
0.0
  9
$SKETCHINC
 40
0.1
  9
$FILLETRAD
 40
0.0
  9
$AUNITS
 70
     0
  9
$AUPREC
 70
     0
  9
$MENU
  1
acad
  9
$ELEVATION
 40
0.0
  9
$PELEVATION
 40
0.0
  9
$THICKNESS
 40
0.0
  9
$LIMCHECK
 70
     0
  9
$BLIPMODE
 70
     1
  9
$CHAMFERA
 40
0.0
  9
$CHAMFERB
 40
0.0
  9
$SKPOLY
 70
     0
  9
$TDCREATE
 40
2448315.373408102
  9
$TDUPDATE
 40
2448315.373408102
  9
$TDINDWG
 40
0.0000000000
  9
$TDUSRTIMER
 40
0.0000000000
  9
$USRTIMER
 70
     1
  9
$ANGBASE
 50
0.0
  9
$ANGDIR
 70
     0
  9
$PDMODE
 70
     0
  9
$PDSIZE
 40
0.0
  9
$PLINEWID
 40
0.0
  9
$COORDS
 70
     0
  9
$SPLFRAME
 70
     0
  9
$SPLINETYPE
 70
     6
  9
$SPLINESEGS
 70
     8
  9
$ATTDIA
 70
     0
  9
$ATTREQ
 70
     1
  9
$HANDLING
 70
     0
  9
$HANDSEED
  5
0
  9
$SURFTAB1
 70
     6
  9
$SURFTAB2
 70
     6
  9
$SURFTYPE
 70
     6
  9
$SURFU
 70
     6
  9
$SURFV
 70
     6
  9
$UCSNAME
  2

  9
$UCSORG
 10
0.0
 20
0.0
 30
0.0
  9
$UCSXDIR
 10
1.0
 20
0.0
 30
0.0
  9
$UCSYDIR
 10
0.0
 20
1.0
 30
0.0
  9
$PUCSNAME
  2

  9
$PUCSORG
 10
0.0
 20
0.0
 30
0.0
  9
$PUCSXDIR
 10
1.0
 20
0.0
 30
0.0
  9
$PUCSYDIR
 10
0.0
 20
1.0
 30
0.0
  9
$USERI1
 70
     0
  9
$USERI2
 70
     0
  9
$USERI3
 70
     0
  9
$USERI4
 70
     0
  9
$USERI5
 70
     0
  9
$USERR1
 40
0.0
  9
$USERR2
 40
0.0
  9
$USERR3
 40
0.0
  9
$USERR4
 40
0.0
  9
$USERR5
 40
0.0
  9
$WORLDVIEW
 70
     1
  9
$SHADEDGE
 70
     3
  9
$SHADEDIF
 70
    70
  9
$TILEMODE
 70
     1
  9
$MAXACTVP
 70
    16
  9
$PINSBASE
 10
0.0
 20
0.0
 30
0.0
  9
$PLIMCHECK
 70
     0
  9
$PEXTMIN
 10
1.000000E+20
 20
1.000000E+20
 30
1.000000E+20
  9
$PEXTMAX
 10
-1.000000E+20
 20
-1.000000E+20
 30
-1.000000E+20
  9
$PLIMMIN
 10
0.0
 20
0.0
  9
$PLIMMAX
 10
12.0
 20
9.0
  9
$UNITMODE
 70
     0
  9
$VISRETAIN
 70
     0
  0
ENDSEC
  0
SECTION
  2
TABLES
  0
TABLE
  2
LTYPE
 70
    1
  0
LTYPE
  2
CONTINUOUS
 70
    64
3
Solid line
 72
    65
 73
0
 40
0.000000
  0
ENDTAB
  0
TABLE
  2
LAYER
 70
    8
  0
LAYER
  2
0
 70
    64
 62
7
  6
CONTINUOUS
  0
LAYER
  2
1
 70
    64
 62
7
  6
CONTINUOUS
  0
LAYER
  2
7
 70
    64
 62
7
  6
CONTINUOUS
  0
LAYER
  2
8
 70
    64
 62
7
  6
CONTINUOUS
  0
LAYER
  2
9
 70
    64
 62
7
  6
CONTINUOUS
  0
LAYER
  2
22
 70
    64
 62
7
  6
CONTINUOUS
  0
LAYER
  2
25
 70
    64
 62
7
  6
CONTINUOUS
  0
LAYER
  2
0
 70
    64
 62
7
  6
CONTINUOUS
  0
ENDTAB
  0
TABLE
  2
STYLE
 70
    1
  0
STYLE
  2
ROMANC
70
     0
 40
0.0
 41
1.0
 50
0.0
 71
     0
 42
0.2
  3
ROMANC
  4

  0
ENDTAB
  0
ENDSEC
  0
SECTION
  2
BLOCKS
  0
ENDSEC
  0
SECTION
  2
ENTITIES
  0
TEXT
  8
0
  6
CONTINUOUS
 40
0.100000
 10
286.909000
 20
41.324000
  1
2
  7
ROMANC
  0
TEXT
  8
0
  6
CONTINUOUS
 40
0.300000
 10
283.926000
 20
41.768000
  1
ESCALA  1:50
  7
ROMANC
  0
POLYLINE
  8
0
  6
CONTINUOUS
 66
     1
 70
     1
  0
VERTEX
  8
0
  6
CONTINUOUS
 10
281.396000
 20
44.747000
  0
VERTEX
  8
0
  6
CONTINUOUS
 10
291.896000
 20
44.747000
  0
VERTEX
  8
0
  6
CONTINUOUS
 10
291.896000
 20
29.897000
  0
VERTEX
  8
0
  6
CONTINUOUS
 10
281.396000
 20
29.897000
  0
SEQEND
  8
0
  0
TEXT
  8
0
  6
CONTINUOUS
 40
0.300000
 10
283.926000
 20
42.381000
  1
TIPUS   T99B
  7
ROMANC
  0
TEXT
  8
0
  6
CONTINUOUS
 40
0.300000
 10
283.922000
 20
40.529000
  1
P = 39 dm
  7
ROMANC
  0
TEXT
  8
0
  6
CONTINUOUS
 40
0.300000
 10
283.945000
 20
41.099000
  1
S = 99 dm
  7
ROMANC
  0
LINE
  8
1
  6
CONTINUOUS
 10
285.902000
 20
34.657000
 11
285.502000
 21
34.657000
  0
TEXT
  8
1
  6
CONTINUOUS
 40
0.075000
 10
285.580000
 20
34.394000
  1
0.40
  7
ROMANC
  0
LINE
  8
1
  6
CONTINUOUS
 10
285.352000
 20
34.432000
 11
285.502000
 21
34.432000
  0
LINE
  8
1
  6
CONTINUOUS
 10
286.052000
 20
34.432000
 11
285.902000
 21
34.432000
  0
LINE
  8
1
  6
CONTINUOUS
 10
285.540000
 20
34.451000
 11
285.464000
 21
34.413000
  0
LINE
  8
1
  6
CONTINUOUS
 10
285.864000
 20
34.413000
 11
285.940000
 21
34.451000
  0
LINE
  8
1
  6
CONTINUOUS
 10
285.502000
 20
34.619000
 11
285.502000
 21
34.394000
  0
LINE
  8
1
  6
CONTINUOUS
 10
285.902000
 20
34.619000
 11
285.902000
 21
34.394000
  0
ARC
  8
1
  6
CONTINUOUS
 10
286.052000
 20
34.657000
 40
0.150000
 50
180.000000
 51
360.000000
  0
TEXT
  8
1
  6
CONTINUOUS
 40
0.075000
 10
286.313000
 20
34.308000
  1
0.30
  7
ROMANC
  0
LINE
  8
1
  6
CONTINUOUS
 10
285.752000
 20
34.345000
 11
285.902000
 21
34.345000
  0
LINE
  8
1
  6
CONTINUOUS
 10
286.275000
 20
34.345000
 11
286.202000
 21
34.345000
  0
LINE
  8
1
  6
CONTINUOUS
 10
285.940000
 20
34.364000
 11
285.864000
 21
34.326000
  0
LINE
  8
1
  6
CONTINUOUS
 10
286.164000
 20
34.326000
 11
286.240000
 21
34.364000
  0
LINE
  8
1
  6
CONTINUOUS
 10
285.902000
 20
34.619000
 11
285.902000
 21
34.307000
  0
LINE
  8
1
  6
CONTINUOUS
 10
286.202000
 20
34.619000
 11
286.202000
 21
34.307000
  0
LINE
  8
1
  6
CONTINUOUS
 10
286.302000
 20
35.457000
 11
286.202000
 21
34.657000
  0
TEXT
  8
1
  6
CONTINUOUS
 40
0.075000
 10
286.432000
 20
34.853000
  1
0.15
 50
90.000000
  7
ROMANC
  0
LINE
  8
1
  6
CONTINUOUS
 10
286.395000
 20
34.357000
 11
286.395000
 21
34.507000
  0
LINE
  8
1
  6
CONTINUOUS
 10
286.395000
 20
34.815000
 11
286.395000
 21
34.657000
  0
LINE
  8
1
  6
CONTINUOUS
 10
286.376000
 20
34.544000
 11
286.414000
 21
34.470000
  0
LINE
  8
1
  6
CONTINUOUS
 10
286.414000
 20
34.620000
 11
286.376000
 21
34.694000
  0
LINE
  8
1
  6
CONTINUOUS
 10
286.090000
 20
34.507000
 11
286.433000
 21
34.507000
  0
LINE
  8
1
  6
CONTINUOUS
 10
286.240000
 20
34.657000
 11
286.433000
 21
34.657000
  0
TEXT
  8
1
  6
CONTINUOUS
 40
0.075000
 10
286.572000
 20
34.938000
  1
0.80
 50
90.000000
  7
ROMANC
  0
LINE
  8
1
  6
CONTINUOUS
 10
286.534000
 20
34.900000
 11
286.534000
 21
34.657000
  0
LINE
  8
1
  6
CONTINUOUS
 10
286.534000
 20
35.212000
 11
286.534000
 21
35.457000
  0
LINE
  8
1
  6
CONTINUOUS
 10
286.553000
 20
34.620000
 11
286.515000
 21
34.694000
  0
LINE
  8
1
  6
CONTINUOUS
 10
286.515000
 20
35.494000
 11
286.553000
 21
35.420000
  0
LINE
  8
1
  6
CONTINUOUS
 10
286.240000
 20
34.657000
 11
286.572000
 21
34.657000
  0
LINE
  8
1
  6
CONTINUOUS
 10
286.340000
 20
35.457000
 11
286.572000
 21
35.457000
  0
TEXT
  8
1
  6
CONTINUOUS
 40
0.075000
 10
286.572000
 20
35.560000
  1
0.45
 50
90.000000
  7
ROMANC
  0
LINE
  8
1
  6
CONTINUOUS
 10
286.534000
 20
35.307000
 11
286.534000
 21
35.457000
  0
LINE
  8
1
  6
CONTINUOUS
 10
286.534000
 20
36.057000
 11
286.534000
 21
35.907000
  0
LINE
  8
1
  6
CONTINUOUS
 10
286.515000
 20
35.494000
 11
286.553000
 21
35.420000
  0
LINE
  8
1
  6
CONTINUOUS
 10
286.553000
 20
35.870000
 11
286.515000
 21
35.944000
  0
LINE
  8
1
  6
CONTINUOUS
 10
285.890000
 20
35.907000
 11
286.572000
 21
35.907000
  0
ARC
  8
1
  6
CONTINUOUS
 10
285.852000
 20
35.457000
 40
0.450000
 50
0.000000
 51
180.000000
  0
TEXT
  8
1
  6
CONTINUOUS
 40
0.075000
 10
285.733000
 20
35.974000
  1
0.90
  7
ROMANC
  0
LINE
  8
1
  6
CONTINUOUS
 10
285.695000
 20
36.011000
 11
285.402000
 21
36.011000
  0
LINE
  8
1
  6
CONTINUOUS
 10
286.007000
 20
36.011000
 11
286.302000
 21
36.011000
  0
LINE
  8
1
  6
CONTINUOUS
 10
285.364000
 20
35.992000
 11
285.440000
 21
36.030000
  0
LINE
  8
1
  6
CONTINUOUS
 10
286.340000
 20
36.030000
 11
286.264000
 21
35.992000
  0
LINE
  8
1
  6
CONTINUOUS
 10
285.402000
 20
35.495000
 11
285.402000
 21
36.049000
  0
LINE
  8
1
  6
CONTINUOUS
 10
286.302000
 20
35.495000
 11
286.302000
 21
36.049000
  0
LINE
  8
1
  6
CONTINUOUS
 10
285.502000
 20
34.657000
 11
285.402000
 21
35.457000
  0
TEXT
  8
1
  6
CONTINUOUS
 40
0.075000
 10
285.733000
 20
34.126000
  1
0.70
  7
ROMANC
  0
LINE
  8
1
  6
CONTINUOUS
 10
285.695000
 20
34.163000
 11
285.502000
 21
34.163000
  0
LINE
  8
1
  6
CONTINUOUS
 10
286.007000
 20
34.163000
 11
286.202000
 21
34.163000
  0
LINE
  8
1
  6
CONTINUOUS
 10
285.464000
 20
34.144000
 11
285.540000
 21
34.182000
  0
LINE
  8
1
  6
CONTINUOUS
 10
286.240000
 20
34.182000
 11
286.164000
 21
34.144000
  0
LINE
  8
1
  6
CONTINUOUS
 10
285.502000
 20
34.619000
 11
285.502000
 21
34.125000
  0
LINE
  8
1
  6
CONTINUOUS
 10
286.202000
 20
34.619000
 11
286.202000
 21
34.125000
  0
TEXT
  8
1
  6
CONTINUOUS
 40
0.075000
 10
286.720000
 20
35.094000
  1
1.40
 50
90.000000
  7
ROMANC
  0
LINE
  8
1
  6
CONTINUOUS
 10
286.682000
 20
35.056000
 11
286.682000
 21
34.507000
  0
LINE
  8
1
  6
CONTINUOUS
 10
286.682000
 20
35.358000
 11
286.682000
 21
35.907000
  0
LINE
  8
1
  6
CONTINUOUS
 10
286.701000
 20
34.470000
 11
286.663000
 21
34.544000
  0
LINE
  8
1
  6
CONTINUOUS
 10
286.663000
 20
35.944000
 11
286.701000
 21
35.870000
  0
LINE
  8
1
  6
CONTINUOUS
 10
286.090000
 20
34.507000
 11
286.720000
 21
34.507000
  0
LINE
  8
1
  6
CONTINUOUS
 10
285.890000
 20
35.907000
 11
286.720000
 21
35.907000
  0
ARC
  8
1
  6
CONTINUOUS
 10
285.852000
 20
35.457000
 40
0.460000
 50
0.709781
 51
180.253603
  0
ARC
  8
1
  6
CONTINUOUS
 10
285.852000
 20
35.457000
 40
0.470000
 50
0.582300
 51
180.375581
  0
LINE
  8
1
  6
CONTINUOUS
 10
286.312000
 20
35.463000
 11
286.211000
 21
34.657000
  0
LINE
  8
1
  6
CONTINUOUS
 10
286.322000
 20
35.462000
 11
286.221000
 21
34.657000
  0
LINE
  8
1
  6
CONTINUOUS
 10
285.493000
 20
34.647000
 11
285.392000
 21
35.455000
  0
LINE
  8
1
  6
CONTINUOUS
 10
285.484000
 20
34.637000
 11
285.382000
 21
35.454000
  0
LINE
  8
1
  6
CONTINUOUS
 10
285.891000
 20
34.647000
 11
285.493000
 21
34.647000
  0
LINE
  8
1
  6
CONTINUOUS
 10
285.882000
 20
34.637000
 11
285.484000
 21
34.637000
  0
ARC
  8
1
  6
CONTINUOUS
 10
286.051000
 20
34.657000
 40
0.160000
 50
183.583322
 51
360.000000
  0
ARC
  8
1
  6
CONTINUOUS
 10
286.051000
 20
34.657000
 40
0.170000
 50
186.756328
 51
360.000000
  0
ENDSEC
  0
EOF
