  0
SECTION
  2
HEADER
  9
$ACADVER
  1
AC1009
  9
$INSBASE
 10
0.0
 20
0.0
 30
0.0
  9
$EXTMIN
 10
281.396000
 20
29.897000
 30
-2147483.648000
  9
$EXTMAX
 10
291.896000
 20
44.747000
 30
0.000000
  9
$LIMMIN
 10
280.396000
 20
28.897000
  9
$LIMMAX
 10
292.896000
 20
43.747000
  9
$ORTHOMODE
 70
     0
  9
$REGENMODE
 70
     1
  9
$FILLMODE
 70
     1
  9
$QTEXTMODE
 70
     0
  9
$MIRRTEXT
 70
     1
  9
$DRAGMODE
 70
     2
  9
$LTSCALE
 40
1.0
  9
$OSMODE
 70
     0
  9
$ATTMODE
 70
     1
  9
$TEXTSIZE
 40
0.2
  9
$TRACEWID
 40
0.05
  9
$TEXTSTYLE
  7
STANDARD
  9
$CLAYER
  8
0
  9
$CELTYPE
  6
BYLAYER
  9
$CECOLOR
 62
   256
  9
$DIMSCALE
 40
1.0
  9
$DIMASZ
 40
0.18
  9
$DIMEXO
 40
0.0625
  9
$DIMDLI
 40
0.38
  9
$DIMRND
 40
0.0
  9
$DIMDLE
 40
0.0
  9
$DIMEXE
 40
0.18
  9
$DIMTP
 40
0.0
  9
$DIMTM
 40
0.0
  9
$DIMTXT
 40
0.18
  9
$DIMCEN
 40
0.09
  9
$DIMTSZ
 40
0.0
  9
$DIMTOL
 70
     0
  9
$DIMLIM
 70
     0
  9
$DIMTIH
 70
     1
  9
$DIMTOH
 70
     1
  9
$DIMSE1
 70
     0
  9
$DIMSE2
 70
     0
  9
$DIMTAD
 70
     0
  9
$DIMZIN
 70
     0
  9
$DIMBLK
  1

  9
$DIMASO
 70
     1
  9
$DIMSHO
 70
     1
  9
$DIMPOST
  1

  9
$DIMAPOST
  1

  9
$DIMALT
 70
     0
  9
$DIMALTD
 70
     2
  9
$DIMALTF
 40
25.4
  9
$DIMLFAC
 40
1.0
  9
$DIMTOFL
 70
     0
  9
$DIMTVP
 40
0.0
  9
$DIMTIX
 70
     0
  9
$DIMSOXD
 70
     0
  9
$DIMSAH
 70
     0
  9
$DIMBLK1
  1

  9
$DIMBLK2
  1

  9
$DIMSTYLE
  2
*UNNAMED
  9
$DIMCLRD
 70
     0
  9
$DIMCLRE
 70
     0
  9
$DIMCLRT
 70
     0
  9
$DIMTFAC
 40
1.0
  9
$DIMGAP
 40
0.09
  9
$LUNITS
 70
     2
  9
$LUPREC
 70
     4
  9
$AXISMODE
 70
     0
  9
$AXISUNIT
 10
0.0
 20
0.0
  9
$SKETCHINC
 40
0.1
  9
$FILLETRAD
 40
0.0
  9
$AUNITS
 70
     0
  9
$AUPREC
 70
     0
  9
$MENU
  1
acad
  9
$ELEVATION
 40
0.0
  9
$PELEVATION
 40
0.0
  9
$THICKNESS
 40
0.0
  9
$LIMCHECK
 70
     0
  9
$BLIPMODE
 70
     1
  9
$CHAMFERA
 40
0.0
  9
$CHAMFERB
 40
0.0
  9
$SKPOLY
 70
     0
  9
$TDCREATE
 40
2448315.373408102
  9
$TDUPDATE
 40
2448315.373408102
  9
$TDINDWG
 40
0.0000000000
  9
$TDUSRTIMER
 40
0.0000000000
  9
$USRTIMER
 70
     1
  9
$ANGBASE
 50
0.0
  9
$ANGDIR
 70
     0
  9
$PDMODE
 70
     0
  9
$PDSIZE
 40
0.0
  9
$PLINEWID
 40
0.0
  9
$COORDS
 70
     0
  9
$SPLFRAME
 70
     0
  9
$SPLINETYPE
 70
     6
  9
$SPLINESEGS
 70
     8
  9
$ATTDIA
 70
     0
  9
$ATTREQ
 70
     1
  9
$HANDLING
 70
     0
  9
$HANDSEED
  5
0
  9
$SURFTAB1
 70
     6
  9
$SURFTAB2
 70
     6
  9
$SURFTYPE
 70
     6
  9
$SURFU
 70
     6
  9
$SURFV
 70
     6
  9
$UCSNAME
  2

  9
$UCSORG
 10
0.0
 20
0.0
 30
0.0
  9
$UCSXDIR
 10
1.0
 20
0.0
 30
0.0
  9
$UCSYDIR
 10
0.0
 20
1.0
 30
0.0
  9
$PUCSNAME
  2

  9
$PUCSORG
 10
0.0
 20
0.0
 30
0.0
  9
$PUCSXDIR
 10
1.0
 20
0.0
 30
0.0
  9
$PUCSYDIR
 10
0.0
 20
1.0
 30
0.0
  9
$USERI1
 70
     0
  9
$USERI2
 70
     0
  9
$USERI3
 70
     0
  9
$USERI4
 70
     0
  9
$USERI5
 70
     0
  9
$USERR1
 40
0.0
  9
$USERR2
 40
0.0
  9
$USERR3
 40
0.0
  9
$USERR4
 40
0.0
  9
$USERR5
 40
0.0
  9
$WORLDVIEW
 70
     1
  9
$SHADEDGE
 70
     3
  9
$SHADEDIF
 70
    70
  9
$TILEMODE
 70
     1
  9
$MAXACTVP
 70
    16
  9
$PINSBASE
 10
0.0
 20
0.0
 30
0.0
  9
$PLIMCHECK
 70
     0
  9
$PEXTMIN
 10
1.000000E+20
 20
1.000000E+20
 30
1.000000E+20
  9
$PEXTMAX
 10
-1.000000E+20
 20
-1.000000E+20
 30
-1.000000E+20
  9
$PLIMMIN
 10
0.0
 20
0.0
  9
$PLIMMAX
 10
12.0
 20
9.0
  9
$UNITMODE
 70
     0
  9
$VISRETAIN
 70
     0
  0
ENDSEC
  0
SECTION
  2
TABLES
  0
TABLE
  2
LTYPE
 70
    1
  0
LTYPE
  2
CONTINUOUS
 70
    64
3
Solid line
 72
    65
 73
0
 40
0.000000
  0
ENDTAB
  0
TABLE
  2
LAYER
 70
    8
  0
LAYER
  2
0
 70
    64
 62
7
  6
CONTINUOUS
  0
LAYER
  2
1
 70
    64
 62
7
  6
CONTINUOUS
  0
LAYER
  2
7
 70
    64
 62
7
  6
CONTINUOUS
  0
LAYER
  2
8
 70
    64
 62
7
  6
CONTINUOUS
  0
LAYER
  2
9
 70
    64
 62
7
  6
CONTINUOUS
  0
LAYER
  2
22
 70
    64
 62
7
  6
CONTINUOUS
  0
LAYER
  2
25
 70
    64
 62
7
  6
CONTINUOUS
  0
LAYER
  2
0
 70
    64
 62
7
  6
CONTINUOUS
  0
ENDTAB
  0
TABLE
  2
STYLE
 70
    1
  0
STYLE
  2
ROMANC
70
     0
 40
0.0
 41
1.0
 50
0.0
 71
     0
 42
0.2
  3
ROMANC
  4

  0
ENDTAB
  0
ENDSEC
  0
SECTION
  2
BLOCKS
  0
ENDSEC
  0
SECTION
  2
ENTITIES
  0
TEXT
  8
0
  6
CONTINUOUS
 40
0.100000
 10
286.909000
 20
41.324000
  1
2
  7
ROMANC
  0
TEXT
  8
0
  6
CONTINUOUS
 40
0.300000
 10
283.926000
 20
41.768000
  1
ESCALA  1:50
  7
ROMANC
  0
POLYLINE
  8
0
  6
CONTINUOUS
 66
     1
 70
     1
  0
VERTEX
  8
0
  6
CONTINUOUS
 10
281.396000
 20
44.747000
  0
VERTEX
  8
0
  6
CONTINUOUS
 10
291.896000
 20
44.747000
  0
VERTEX
  8
0
  6
CONTINUOUS
 10
291.896000
 20
29.897000
  0
VERTEX
  8
0
  6
CONTINUOUS
 10
281.396000
 20
29.897000
  0
SEQEND
  8
0
  0
TEXT
  8
0
  6
CONTINUOUS
 40
0.300000
 10
283.926000
 20
42.381000
  1
TIPUS   T98B
  7
ROMANC
  0
TEXT
  8
0
  6
CONTINUOUS
 40
0.300000
 10
283.922000
 20
40.529000
  1
P = 39 dm
  7
ROMANC
  0
TEXT
  8
0
  6
CONTINUOUS
 40
0.300000
 10
283.945000
 20
41.099000
  1
S = 100 dm
  7
ROMANC
  0
LINE
  8
1
  6
CONTINUOUS
 10
285.704000
 20
35.528000
 11
285.854000
 21
34.678000
  0
LINE
  8
1
  6
CONTINUOUS
 10
285.854000
 20
34.678000
 11
285.954000
 21
34.678000
  0
TEXT
  8
1
  6
CONTINUOUS
 40
0.075000
 10
285.462000
 20
34.352000
  1
0.10
  7
ROMANC
  0
LINE
  8
1
  6
CONTINUOUS
 10
285.795000
 20
34.390000
 11
285.854000
 21
34.390000
  0
LINE
  8
1
  6
CONTINUOUS
 10
286.104000
 20
34.390000
 11
285.954000
 21
34.390000
  0
LINE
  8
1
  6
CONTINUOUS
 10
285.892000
 20
34.409000
 11
285.816000
 21
34.371000
  0
LINE
  8
1
  6
CONTINUOUS
 10
285.916000
 20
34.371000
 11
285.992000
 21
34.409000
  0
LINE
  8
1
  6
CONTINUOUS
 10
285.854000
 20
34.640000
 11
285.854000
 21
34.352000
  0
LINE
  8
1
  6
CONTINUOUS
 10
285.954000
 20
34.640000
 11
285.954000
 21
34.352000
  0
ARC
  8
1
  6
CONTINUOUS
 10
286.154000
 20
34.736333
 40
0.208333
 50
196.260206
 51
343.739797
  0
TEXT
  8
1
  6
CONTINUOUS
 40
0.075000
 10
286.032000
 20
34.254000
  1
0.40
  7
ROMANC
  0
LINE
  8
1
  6
CONTINUOUS
 10
285.804000
 20
34.292000
 11
285.954000
 21
34.292000
  0
LINE
  8
1
  6
CONTINUOUS
 10
286.504000
 20
34.292000
 11
286.354000
 21
34.292000
  0
LINE
  8
1
  6
CONTINUOUS
 10
285.992000
 20
34.311000
 11
285.916000
 21
34.273000
  0
LINE
  8
1
  6
CONTINUOUS
 10
286.316000
 20
34.273000
 11
286.392000
 21
34.311000
  0
LINE
  8
1
  6
CONTINUOUS
 10
285.954000
 20
34.640000
 11
285.954000
 21
34.254000
  0
LINE
  8
1
  6
CONTINUOUS
 10
286.354000
 20
34.640000
 11
286.354000
 21
34.254000
  0
LINE
  8
1
  6
CONTINUOUS
 10
286.354000
 20
34.678000
 11
286.454000
 21
34.678000
  0
LINE
  8
1
  6
CONTINUOUS
 10
286.454000
 20
34.678000
 11
286.604000
 21
35.528000
  0
TEXT
  8
1
  6
CONTINUOUS
 40
0.075000
 10
286.529000
 20
34.348000
  1
0.10
  7
ROMANC
  0
LINE
  8
1
  6
CONTINUOUS
 10
286.204000
 20
34.385000
 11
286.354000
 21
34.385000
  0
LINE
  8
1
  6
CONTINUOUS
 10
286.491000
 20
34.385000
 11
286.454000
 21
34.385000
  0
LINE
  8
1
  6
CONTINUOUS
 10
286.392000
 20
34.404000
 11
286.316000
 21
34.366000
  0
LINE
  8
1
  6
CONTINUOUS
 10
286.416000
 20
34.366000
 11
286.492000
 21
34.404000
  0
LINE
  8
1
  6
CONTINUOUS
 10
286.354000
 20
34.640000
 11
286.354000
 21
34.347000
  0
LINE
  8
1
  6
CONTINUOUS
 10
286.454000
 20
34.640000
 11
286.454000
 21
34.347000
  0
TEXT
  8
1
  6
CONTINUOUS
 40
0.075000
 10
286.646000
 20
34.799000
  1
0.15
 50
90.000000
  7
ROMANC
  0
LINE
  8
1
  6
CONTINUOUS
 10
286.609000
 20
34.378000
 11
286.609000
 21
34.528000
  0
LINE
  8
1
  6
CONTINUOUS
 10
286.609000
 20
34.761000
 11
286.609000
 21
34.678000
  0
LINE
  8
1
  6
CONTINUOUS
 10
286.590000
 20
34.566000
 11
286.628000
 21
34.490000
  0
LINE
  8
1
  6
CONTINUOUS
 10
286.628000
 20
34.640000
 11
286.590000
 21
34.716000
  0
LINE
  8
1
  6
CONTINUOUS
 10
286.192000
 20
34.528000
 11
286.647000
 21
34.528000
  0
LINE
  8
1
  6
CONTINUOUS
 10
286.492000
 20
34.678000
 11
286.647000
 21
34.678000
  0
TEXT
  8
1
  6
CONTINUOUS
 40
0.075000
 10
286.776000
 20
34.984000
  1
0.85
 50
90.000000
  7
ROMANC
  0
LINE
  8
1
  6
CONTINUOUS
 10
286.739000
 20
34.946000
 11
286.739000
 21
34.678000
  0
LINE
  8
1
  6
CONTINUOUS
 10
286.739000
 20
35.258000
 11
286.739000
 21
35.528000
  0
LINE
  8
1
  6
CONTINUOUS
 10
286.758000
 20
34.640000
 11
286.720000
 21
34.716000
  0
LINE
  8
1
  6
CONTINUOUS
 10
286.720000
 20
35.566000
 11
286.758000
 21
35.490000
  0
LINE
  8
1
  6
CONTINUOUS
 10
286.492000
 20
34.678000
 11
286.777000
 21
34.678000
  0
LINE
  8
1
  6
CONTINUOUS
 10
286.642000
 20
35.528000
 11
286.777000
 21
35.528000
  0
ARC
  8
1
  6
CONTINUOUS
 10
286.154000
 20
35.528000
 40
0.450000
 50
360.000000
 51
540.000000
  0
TEXT
  8
1
  6
CONTINUOUS
 40
0.075000
 10
286.776000
 20
35.631000
  1
0.45
 50
90.000000
  7
ROMANC
  0
LINE
  8
1
  6
CONTINUOUS
 10
286.739000
 20
35.378000
 11
286.739000
 21
35.528000
  0
LINE
  8
1
  6
CONTINUOUS
 10
286.739000
 20
36.128000
 11
286.739000
 21
35.978000
  0
LINE
  8
1
  6
CONTINUOUS
 10
286.720000
 20
35.566000
 11
286.758000
 21
35.490000
  0
LINE
  8
1
  6
CONTINUOUS
 10
286.758000
 20
35.940000
 11
286.720000
 21
36.016000
  0
LINE
  8
1
  6
CONTINUOUS
 10
286.642000
 20
35.528000
 11
286.777000
 21
35.528000
  0
LINE
  8
1
  6
CONTINUOUS
 10
286.192000
 20
35.978000
 11
286.777000
 21
35.978000
  0
TEXT
  8
1
  6
CONTINUOUS
 40
0.075000
 10
286.035000
 20
36.076000
  1
0.90
  7
ROMANC
  0
LINE
  8
1
  6
CONTINUOUS
 10
285.997000
 20
36.113000
 11
285.704000
 21
36.113000
  0
LINE
  8
1
  6
CONTINUOUS
 10
286.309000
 20
36.113000
 11
286.604000
 21
36.113000
  0
LINE
  8
1
  6
CONTINUOUS
 10
285.666000
 20
36.094000
 11
285.742000
 21
36.132000
  0
LINE
  8
1
  6
CONTINUOUS
 10
286.642000
 20
36.132000
 11
286.566000
 21
36.094000
  0
LINE
  8
1
  6
CONTINUOUS
 10
285.704000
 20
35.566000
 11
285.704000
 21
36.151000
  0
LINE
  8
1
  6
CONTINUOUS
 10
286.604000
 20
35.566000
 11
286.604000
 21
36.151000
  0
TEXT
  8
1
  6
CONTINUOUS
 40
0.075000
 10
286.940000
 20
35.140000
  1
1.45
 50
90.000000
  7
ROMANC
  0
LINE
  8
1
  6
CONTINUOUS
 10
286.902000
 20
35.102000
 11
286.902000
 21
34.528000
  0
LINE
  8
1
  6
CONTINUOUS
 10
286.902000
 20
35.404000
 11
286.902000
 21
35.978000
  0
LINE
  8
1
  6
CONTINUOUS
 10
286.921000
 20
34.490000
 11
286.883000
 21
34.566000
  0
LINE
  8
1
  6
CONTINUOUS
 10
286.883000
 20
36.016000
 11
286.921000
 21
35.940000
  0
LINE
  8
1
  6
CONTINUOUS
 10
286.192000
 20
34.528000
 11
286.940000
 21
34.528000
  0
LINE
  8
1
  6
CONTINUOUS
 10
286.192000
 20
35.978000
 11
286.940000
 21
35.978000
  0
TEXT
  8
1
  6
CONTINUOUS
 40
0.075000
 10
286.035000
 20
34.118000
  1
0.60
  7
ROMANC
  0
LINE
  8
1
  6
CONTINUOUS
 10
285.704000
 20
34.155000
 11
285.854000
 21
34.155000
  0
LINE
  8
1
  6
CONTINUOUS
 10
286.604000
 20
34.155000
 11
286.454000
 21
34.155000
  0
LINE
  8
1
  6
CONTINUOUS
 10
285.892000
 20
34.174000
 11
285.816000
 21
34.136000
  0
LINE
  8
1
  6
CONTINUOUS
 10
286.416000
 20
34.136000
 11
286.492000
 21
34.174000
  0
LINE
  8
1
  6
CONTINUOUS
 10
285.854000
 20
34.640000
 11
285.854000
 21
34.117000
  0
LINE
  8
1
  6
CONTINUOUS
 10
286.454000
 20
34.640000
 11
286.454000
 21
34.117000
  0
ARC
  8
1
  6
CONTINUOUS
 10
286.154000
 20
35.528000
 40
0.460000
 50
360.446836
 51
540.252258
  0
ARC
  8
1
  6
CONTINUOUS
 10
286.154000
 20
35.528000
 40
0.470000
 50
360.201175
 51
540.499992
  0
LINE
  8
1
  6
CONTINUOUS
 10
285.694000
 20
35.526000
 11
285.845000
 21
34.668000
  0
LINE
  8
1
  6
CONTINUOUS
 10
285.684000
 20
35.524000
 11
285.837000
 21
34.658000
  0
LINE
  8
1
  6
CONTINUOUS
 10
286.462000
 20
34.668000
 11
286.614000
 21
35.532000
  0
LINE
  8
1
  6
CONTINUOUS
 10
286.470000
 20
34.658000
 11
286.624000
 21
35.530000
  0
LINE
  8
1
  6
CONTINUOUS
 10
285.845000
 20
34.668000
 11
285.947000
 21
34.668000
  0
LINE
  8
1
  6
CONTINUOUS
 10
285.837000
 20
34.658000
 11
285.940000
 21
34.658000
  0
ARC
  8
1
  6
CONTINUOUS
 10
286.154000
 20
34.736333
 40
0.218333
 50
198.238736
 51
341.761264
  0
ARC
  8
1
  6
CONTINUOUS
 10
286.154000
 20
34.736333
 40
0.228333
 50
200.063764
 51
339.936236
  0
LINE
  8
1
  6
CONTINUOUS
 10
286.361000
 20
34.668000
 11
286.462000
 21
34.668000
  0
LINE
  8
1
  6
CONTINUOUS
 10
286.368000
 20
34.658000
 11
286.470000
 21
34.658000
  0
ENDSEC
  0
EOF
