  0
SECTION
  2
HEADER
  9
$ACADVER
  1
AC1009
  9
$INSBASE
 10
167.272362
 20
-19.872516
 30
0.0
  9
$EXTMIN
 10
22.591444
 20
-21.448265
 30
0.0
  9
$EXTMAX
 10
228.671302
 20
98.615031
 30
0.0
  9
$LIMMIN
 10
0.0
 20
0.0
  9
$LIMMAX
 10
410.0
 20
287.0
  9
$ORTHOMODE
 70
     0
  9
$REGENMODE
 70
     1
  9
$FILLMODE
 70
     1
  9
$QTEXTMODE
 70
     0
  9
$MIRRTEXT
 70
     1
  9
$DRAGMODE
 70
     2
  9
$LTSCALE
 40
25.0
  9
$OSMODE
 70
    32
  9
$ATTMODE
 70
     1
  9
$TEXTSIZE
 40
0.1
  9
$TRACEWID
 40
1.0
  9
$TEXTSTYLE
  7
ROMANC
  9
$CLAYER
  8
0
  9
$CELTYPE
  6
BYLAYER
  9
$CECOLOR
 62
   256
  9
$DIMSCALE
 40
0.0
  9
$DIMASZ
 40
0.0
  9
$DIMEXO
 40
0.1
  9
$DIMDLI
 40
7.0
  9
$DIMRND
 40
0.0
  9
$DIMDLE
 40
0.0
  9
$DIMEXE
 40
1.8
  9
$DIMTP
 40
0.0
  9
$DIMTM
 40
0.0
  9
$DIMTXT
 40
0.03
  9
$DIMCEN
 40
1.5
  9
$DIMTSZ
 40
1.0
  9
$DIMTOL
 70
     0
  9
$DIMLIM
 70
     0
  9
$DIMTIH
 70
     0
  9
$DIMTOH
 70
     0
  9
$DIMSE1
 70
     0
  9
$DIMSE2
 70
     0
  9
$DIMTAD
 70
     0
  9
$DIMZIN
 70
     0
  9
$DIMBLK
  1

  9
$DIMASO
 70
     1
  9
$DIMSHO
 70
     0
  9
$DIMPOST
  1

  9
$DIMAPOST
  1

  9
$DIMALT
 70
     0
  9
$DIMALTD
 70
     2
  9
$DIMALTF
 40
25.4
  9
$DIMLFAC
 40
1.0
  9
$DIMTOFL
 70
     1
  9
$DIMTVP
 40
0.0
  9
$DIMTIX
 70
     1
  9
$DIMSOXD
 70
     0
  9
$DIMSAH
 70
     0
  9
$DIMBLK1
  1

  9
$DIMBLK2
  1

  9
$DIMSTYLE
  2
*UNNAMED
  9
$DIMCLRD
 70
     0
  9
$DIMCLRE
 70
     0
  9
$DIMCLRT
 70
     0
  9
$DIMTFAC
 40
116.666667
  9
$DIMGAP
 40
0.09
  9
$LUNITS
 70
     2
  9
$LUPREC
 70
     2
  9
$SKETCHINC
 40
1.0
  9
$FILLETRAD
 40
0.0
  9
$AUNITS
 70
     0
  9
$AUPREC
 70
     0
  9
$MENU
  1
acad
  9
$ELEVATION
 40
0.0
  9
$PELEVATION
 40
0.0
  9
$THICKNESS
 40
0.0
  9
$LIMCHECK
 70
     0
  9
$BLIPMODE
 70
     0
  9
$CHAMFERA
 40
0.0
  9
$CHAMFERB
 40
0.0
  9
$SKPOLY
 70
     0
  9
$TDCREATE
 40
2449967.385306713
  9
$TDUPDATE
 40
2450207.485245023
  9
$TDINDWG
 40
0.0002510417
  9
$TDUSRTIMER
 40
0.0002510417
  9
$USRTIMER
 70
     1
  9
$ANGBASE
 50
0.0
  9
$ANGDIR
 70
     0
  9
$PDMODE
 70
     0
  9
$PDSIZE
 40
0.0
  9
$PLINEWID
 40
0.0
  9
$COORDS
 70
     2
  9
$SPLFRAME
 70
     0
  9
$SPLINETYPE
 70
     6
  9
$SPLINESEGS
 70
     8
  9
$ATTDIA
 70
     0
  9
$ATTREQ
 70
     1
  9
$HANDLING
 70
     0
  9
$HANDSEED
  5
0
  9
$SURFTAB1
 70
     6
  9
$SURFTAB2
 70
     6
  9
$SURFTYPE
 70
     6
  9
$SURFU
 70
     6
  9
$SURFV
 70
     6
  9
$UCSNAME
  2

  9
$UCSORG
 10
0.0
 20
0.0
 30
0.0
  9
$UCSXDIR
 10
1.0
 20
0.0
 30
0.0
  9
$UCSYDIR
 10
0.0
 20
1.0
 30
0.0
  9
$PUCSNAME
  2

  9
$PUCSORG
 10
0.0
 20
0.0
 30
0.0
  9
$PUCSXDIR
 10
1.0
 20
0.0
 30
0.0
  9
$PUCSYDIR
 10
0.0
 20
1.0
 30
0.0
  9
$USERI1
 70
     0
  9
$USERI2
 70
     0
  9
$USERI3
 70
     0
  9
$USERI4
 70
     0
  9
$USERI5
 70
     0
  9
$USERR1
 40
0.0
  9
$USERR2
 40
0.0
  9
$USERR3
 40
0.0
  9
$USERR4
 40
0.0
  9
$USERR5
 40
0.0
  9
$WORLDVIEW
 70
     1
  9
$SHADEDGE
 70
     3
  9
$SHADEDIF
 70
    70
  9
$TILEMODE
 70
     1
  9
$MAXACTVP
 70
    16
  9
$PINSBASE
 10
0.0
 20
0.0
 30
0.0
  9
$PLIMCHECK
 70
     0
  9
$PEXTMIN
 10
1.000000E+20
 20
1.000000E+20
 30
1.000000E+20
  9
$PEXTMAX
 10
-1.000000E+20
 20
-1.000000E+20
 30
-1.000000E+20
  9
$PLIMMIN
 10
0.0
 20
0.0
  9
$PLIMMAX
 10
12.0
 20
9.0
  9
$UNITMODE
 70
     0
  9
$VISRETAIN
 70
     0
  9
$PLINEGEN
 70
     0
  9
$PSLTSCALE
 70
     0
  9
$TREEDEPTH
 70
  3020
  9
$DWGCODEPAGE
  3
iso8859-1
  0
ENDSEC
  0
SECTION
  2
TABLES
  0
TABLE
  2
VPORT
 70
     1
  0
VPORT
  2
*ACTIVE
 70
     0
 10
0.0
 20
0.0
 11
1.0
 21
1.0
 12
168.801354
 22
-10.850469
 13
0.0
 23
0.0
 14
1.0
 24
1.0
 15
10.0
 25
10.0
 16
0.0
 26
0.0
 36
1.0
 17
0.0
 27
0.0
 37
0.0
 40
19.578869
 41
1.65
 42
50.0
 43
0.0
 44
0.0
 50
0.0
 51
0.0
 71
     0
 72
   100
 73
     1
 74
     0
 75
     0
 76
     0
 77
     0
 78
     2
  0
ENDTAB
  0
TABLE
  2
LTYPE
 70
     1
  0
LTYPE
  2
CONTINUOUS
 70
    64
  3
Solid line
 72
    65
 73
     0
 40
0.0
  0
ENDTAB
  0
TABLE
  2
LAYER
 70
     2
  0
LAYER
  2
0
 70
    64
 62
     7
  6
CONTINUOUS
  0
LAYER
  2
MESURA
 70
    64
 62
     7
  6
CONTINUOUS
  0
ENDTAB
  0
TABLE
  2
STYLE
 70
     2
  0
STYLE
  2
STANDARD
 70
     0
 40
0.0
 41
1.0
 50
0.0
 71
     0
 42
0.1
  3
txt
  4

  0
STYLE
  2
ROMANC
 70
    64
 40
0.0
 41
1.0
 50
0.0
 71
     0
 42
0.1
  3
romanc
  4

  0
ENDTAB
  0
TABLE
  2
VIEW
 70
     0
  0
ENDTAB
  0
TABLE
  2
UCS
 70
     0
  0
ENDTAB
  0
TABLE
  2
APPID
 70
     1
  0
APPID
  2
ACAD
 70
    64
  0
ENDTAB
  0
TABLE
  2
DIMSTYLE
 70
     0
  0
ENDTAB
  0
ENDSEC
  0
SECTION
  2
BLOCKS
  0
BLOCK
  8
0
  2
*X0
 70
    65
 10
0.0
 20
0.0
 30
0.0
  3
*X
  0
LINE
  8
0
 62
     0
 10
172.855978
 20
-15.04881
 30
0.0
 11
172.918147
 21
-14.986641
 31
0.0
  0
LINE
  8
0
 62
     0
 10
172.855978
 20
-15.039971
 30
0.0
 11
172.918929
 21
-14.977021
 31
0.0
  0
LINE
  8
0
 62
     0
 10
172.855978
 20
-15.031132
 30
0.0
 11
172.912239
 21
-14.974872
 31
0.0
  0
LINE
  8
0
 62
     0
 10
172.855978
 20
-15.022294
 30
0.0
 11
172.9034
 21
-14.974872
 31
0.0
  0
LINE
  8
0
 62
     0
 10
172.855978
 20
-15.013455
 30
0.0
 11
172.894561
 21
-14.974872
 31
0.0
  0
LINE
  8
0
 62
     0
 10
172.855978
 20
-15.004616
 30
0.0
 11
172.885722
 21
-14.974872
 31
0.0
  0
LINE
  8
0
 62
     0
 10
172.855978
 20
-14.995777
 30
0.0
 11
172.876884
 21
-14.974872
 31
0.0
  0
LINE
  8
0
 62
     0
 10
172.855978
 20
-14.986938
 30
0.0
 11
172.868045
 21
-14.974872
 31
0.0
  0
LINE
  8
0
 62
     0
 10
172.855978
 20
-14.978099
 30
0.0
 11
172.859206
 21
-14.974872
 31
0.0
  0
LINE
  8
0
 62
     0
 10
172.855978
 20
-15.057649
 30
0.0
 11
172.917365
 21
-14.996262
 31
0.0
  0
LINE
  8
0
 62
     0
 10
172.855978
 20
-15.066488
 30
0.0
 11
172.916584
 21
-15.005882
 31
0.0
  0
LINE
  8
0
 62
     0
 10
172.856433
 20
-15.074872
 30
0.0
 11
172.915802
 21
-15.015503
 31
0.0
  0
LINE
  8
0
 62
     0
 10
172.865272
 20
-15.074872
 30
0.0
 11
172.91502
 21
-15.025123
 31
0.0
  0
LINE
  8
0
 62
     0
 10
172.874111
 20
-15.074872
 30
0.0
 11
172.914239
 21
-15.034744
 31
0.0
  0
LINE
  8
0
 62
     0
 10
172.88295
 20
-15.074872
 30
0.0
 11
172.913457
 21
-15.044364
 31
0.0
  0
LINE
  8
0
 62
     0
 10
172.891788
 20
-15.074872
 30
0.0
 11
172.912675
 21
-15.053985
 31
0.0
  0
LINE
  8
0
 62
     0
 10
172.900627
 20
-15.074872
 30
0.0
 11
172.911894
 21
-15.063605
 31
0.0
  0
LINE
  8
0
 62
     0
 10
172.909466
 20
-15.074872
 30
0.0
 11
172.911112
 21
-15.073226
 31
0.0
  0
ENDBLK
  8
0
  0
BLOCK
  8
0
  2
*X1
 70
    65
 10
0.0
 20
0.0
 30
0.0
  3
*X
  0
LINE
  8
0
 62
     0
 10
172.193521
 20
-15.074872
 30
0.0
 11
172.195978
 21
-15.072414
 31
0.0
  0
LINE
  8
0
 62
     0
 10
172.184682
 20
-15.074872
 30
0.0
 11
172.195978
 21
-15.063575
 31
0.0
  0
LINE
  8
0
 62
     0
 10
172.175843
 20
-15.074872
 30
0.0
 11
172.195978
 21
-15.054736
 31
0.0
  0
LINE
  8
0
 62
     0
 10
172.167004
 20
-15.074872
 30
0.0
 11
172.195978
 21
-15.045898
 31
0.0
  0
LINE
  8
0
 62
     0
 10
172.158165
 20
-15.074872
 30
0.0
 11
172.195978
 21
-15.037059
 31
0.0
  0
LINE
  8
0
 62
     0
 10
172.149326
 20
-15.074872
 30
0.0
 11
172.195978
 21
-15.02822
 31
0.0
  0
LINE
  8
0
 62
     0
 10
172.140941
 20
-15.074418
 30
0.0
 11
172.195978
 21
-15.019381
 31
0.0
  0
LINE
  8
0
 62
     0
 10
172.140277
 20
-15.066243
 30
0.0
 11
172.195978
 21
-15.010542
 31
0.0
  0
LINE
  8
0
 62
     0
 10
172.139613
 20
-15.058069
 30
0.0
 11
172.195978
 21
-15.001703
 31
0.0
  0
LINE
  8
0
 62
     0
 10
172.138949
 20
-15.049894
 30
0.0
 11
172.195978
 21
-14.992865
 31
0.0
  0
LINE
  8
0
 62
     0
 10
172.138285
 20
-15.041719
 30
0.0
 11
172.195978
 21
-14.984026
 31
0.0
  0
LINE
  8
0
 62
     0
 10
172.13762
 20
-15.033545
 30
0.0
 11
172.195978
 21
-14.975187
 31
0.0
  0
LINE
  8
0
 62
     0
 10
172.136956
 20
-15.02537
 30
0.0
 11
172.187455
 21
-14.974872
 31
0.0
  0
LINE
  8
0
 62
     0
 10
172.136292
 20
-15.017195
 30
0.0
 11
172.178616
 21
-14.974872
 31
0.0
  0
LINE
  8
0
 62
     0
 10
172.135628
 20
-15.009021
 30
0.0
 11
172.169777
 21
-14.974872
 31
0.0
  0
LINE
  8
0
 62
     0
 10
172.134964
 20
-15.000846
 30
0.0
 11
172.160938
 21
-14.974872
 31
0.0
  0
LINE
  8
0
 62
     0
 10
172.134299
 20
-14.992671
 30
0.0
 11
172.152099
 21
-14.974872
 31
0.0
  0
LINE
  8
0
 62
     0
 10
172.133635
 20
-14.984497
 30
0.0
 11
172.14326
 21
-14.974872
 31
0.0
  0
LINE
  8
0
 62
     0
 10
172.132971
 20
-14.976322
 30
0.0
 11
172.134422
 21
-14.974872
 31
0.0
  0
ENDBLK
  8
0
  0
ENDSEC
  0
SECTION
  2
ENTITIES
  0
LINE
  8
0
 10
167.272362
 20
-5.022516
 30
0.0
 11
167.272362
 21
-19.872516
 31
0.0
  0
LINE
  8
0
 10
177.772362
 20
-19.872516
 30
0.0
 11
177.772362
 21
-5.022516
 31
0.0
  0
LINE
  8
MESURA
  6
BYBLOCK
 62
     0
 10
172.811112
 20
-15.814335
 30
0.0
 11
173.011112
 21
-15.614335
 31
0.0
  0
LINE
  8
MESURA
  6
BYBLOCK
 62
     0
 10
172.875978
 20
-13.801383
 30
0.0
 11
173.075978
 21
-13.601383
 31
0.0
  0
LINE
  8
0
 10
172.525978
 20
-15.274872
 30
0.0
 11
173.260453
 21
-15.274872
 31
0.0
  0
LINE
  8
0
 10
172.525978
 20
-13.924872
 30
0.0
 11
173.609928
 21
-13.924872
 31
0.0
  0
LINE
  8
0
 10
172.910978
 20
-15.074872
 30
0.0
 11
173.260453
 21
-15.074872
 31
0.0
  0
LINE
  8
0
 10
172.075978
 20
-13.701383
 30
0.0
 11
172.975978
 21
-13.701383
 31
0.0
  0
LINE
  8
0
 10
167.272362
 20
-19.872516
 30
0.0
 11
177.772362
 21
-19.872516
 31
0.0
  0
TEXT
  8
0
 10
172.398344
 20
-15.032393
 30
0.0
 40
0.1
  1
0.1
  7
ROMANC
  0
TEXT
  8
0
 10
172.406416
 20
-14.741988
 30
0.0
 40
0.1
  1
0.66
  7
ROMANC
  0
TEXT
  8
0
 10
172.406416
 20
-15.62127
 30
0.0
 40
0.1
  1
0.3
  7
ROMANC
  0
TEXT
  8
0
 10
172.414488
 20
-15.887474
 30
0.0
 40
0.1
  1
0.77
  7
ROMANC
  0
TEXT
  8
0
 10
172.487137
 20
-13.540034
 30
0.0
 40
0.1
  1
0.9
  7
ROMANC
  0
LINE
  8
MESURA
  6
BYBLOCK
 62
     0
 10
172.755978
 20
-14.902974
 30
0.0
 11
172.955978
 21
-14.702974
 31
0.0
  0
LINE
  8
MESURA
  6
BYBLOCK
 62
     0
 10
172.095978
 20
-14.902974
 30
0.0
 11
172.295978
 21
-14.702974
 31
0.0
  0
LINE
  8
0
 10
172.855978
 20
-14.974872
 30
0.0
 11
172.855978
 21
-14.802974
 31
0.0
  0
LINE
  8
0
 10
172.195978
 20
-14.802974
 30
0.0
 11
172.855978
 21
-14.802974
 31
0.0
  0
LINE
  8
0
 10
172.195978
 20
-14.974872
 30
0.0
 11
172.195978
 21
-14.802974
 31
0.0
  0
LINE
  8
MESURA
  6
BYBLOCK
 62
     0
 10
172.275978
 20
-15.578238
 30
0.0
 11
172.475978
 21
-15.378238
 31
0.0
  0
LINE
  8
MESURA
  6
BYBLOCK
 62
     0
 10
172.575978
 20
-15.578238
 30
0.0
 11
172.775978
 21
-15.378238
 31
0.0
  0
LINE
  8
MESURA
  6
BYBLOCK
 62
     0
 10
172.049326
 20
-15.814335
 30
0.0
 11
172.249326
 21
-15.614335
 31
0.0
  0
LINE
  8
MESURA
  6
BYBLOCK
 62
     0
 10
171.975978
 20
-13.801383
 30
0.0
 11
172.175978
 21
-13.601383
 31
0.0
  0
LINE
  8
0
 10
172.911112
 20
-15.073226
 30
0.0
 11
172.911112
 21
-15.714335
 31
0.0
  0
LINE
  8
0
 10
172.149326
 20
-15.074872
 30
0.0
 11
172.149326
 21
-15.714335
 31
0.0
  0
LINE
  8
0
 10
172.675978
 20
-15.074872
 30
0.0
 11
172.675978
 21
-15.478238
 31
0.0
  0
LINE
  8
0
 10
172.375978
 20
-15.074872
 30
0.0
 11
172.375978
 21
-15.478238
 31
0.0
  0
LINE
  8
0
 10
172.075978
 20
-14.274872
 30
0.0
 11
172.075978
 21
-13.701383
 31
0.0
  0
LINE
  8
0
 10
172.375978
 20
-15.478238
 30
0.0
 11
172.675978
 21
-15.478238
 31
0.0
  0
LINE
  8
0
 10
172.149326
 20
-15.714335
 30
0.0
 11
172.911112
 21
-15.714335
 31
0.0
  0
TEXT
  8
0
 10
173.334703
 20
-15.185662
 30
0.0
 40
0.1
  1
0.2
  7
ROMANC
  0
TEXT
  8
0
 10
173.334703
 20
-14.68552
 30
0.0
 40
0.1
  1
0.8
  7
ROMANC
  0
TEXT
  8
0
 10
173.754449
 20
-14.596785
 30
0.0
 40
0.1
  1
1.35
  7
ROMANC
  0
LINE
  8
MESURA
  6
BYBLOCK
 62
     0
 10
173.160453
 20
-14.374872
 30
0.0
 11
173.360453
 21
-14.174872
 31
0.0
  0
LINE
  8
MESURA
  6
BYBLOCK
 62
     0
 10
173.160453
 20
-15.174872
 30
0.0
 11
173.360453
 21
-14.974872
 31
0.0
  0
LINE
  8
MESURA
  6
BYBLOCK
 62
     0
 10
173.160453
 20
-15.374872
 30
0.0
 11
173.360453
 21
-15.174872
 31
0.0
  0
LINE
  8
MESURA
  6
BYBLOCK
 62
     0
 10
173.509928
 20
-15.374872
 30
0.0
 11
173.709928
 21
-15.174872
 31
0.0
  0
LINE
  8
MESURA
  6
BYBLOCK
 62
     0
 10
173.509928
 20
-14.024872
 30
0.0
 11
173.709928
 21
-13.824872
 31
0.0
  0
LINE
  8
0
 10
173.260453
 20
-15.274872
 30
0.0
 11
173.609928
 21
-15.274872
 31
0.0
  0
LINE
  8
0
 10
173.260453
 20
-15.074872
 30
0.0
 11
173.260453
 21
-15.274872
 31
0.0
  0
LINE
  8
0
 10
172.975978
 20
-14.274872
 30
0.0
 11
173.260453
 21
-14.274872
 31
0.0
  0
LINE
  8
0
 10
172.975978
 20
-14.274872
 30
0.0
 11
172.975978
 21
-13.701383
 31
0.0
  0
LINE
  8
0
 10
173.609928
 20
-15.274872
 30
0.0
 11
173.609928
 21
-13.924872
 31
0.0
  0
LINE
  8
0
 10
173.260453
 20
-15.074872
 30
0.0
 11
173.260453
 21
-14.274872
 31
0.0
  0
TEXT
  8
0
 10
169.787587
 20
-9.276303
 30
0.0
 40
0.3
  1
P = 40.5 dm
  7
ROMANC
  0
TEXT
  8
0
 10
169.815429
 20
-8.510961
 30
0.0
 40
0.3
  1
S =   94 dm
  7
ROMANC
  0
TEXT
  8
0
 10
169.802335
 20
-7.912371
 30
0.0
 40
0.3
  1
ESCALA  1:50
  7
ROMANC
  0
LINE
  8
0
 10
177.772362
 20
-5.022516
 30
0.0
 11
167.272362
 21
-5.022516
 31
0.0
  0
TEXT
  8
0
 10
169.802335
 20
-7.426657
 30
0.0
 40
0.3
  1
TIPUS   T94
  7
ROMANC
  0
TEXT
  8
0
 10
173.32326
 20
-8.205045
 30
0.0
 40
0.1
  1
2
  7
ROMANC
  0
ARC
  8
0
 10
172.075978
 20
-14.274872
 30
0.0
 40
0.0
 50
0.0
 51
0.0
  0
LINE
  8
0
 62
     0
 10
172.855978
 20
-15.04881
 30
0.0
 11
172.918147
 21
-14.986641
 31
0.0
  0
LINE
  8
0
 62
     0
 10
172.855978
 20
-15.039971
 30
0.0
 11
172.918929
 21
-14.977021
 31
0.0
  0
LINE
  8
0
 62
     0
 10
172.855978
 20
-15.031132
 30
0.0
 11
172.912239
 21
-14.974872
 31
0.0
  0
LINE
  8
0
 62
     0
 10
172.855978
 20
-15.022294
 30
0.0
 11
172.9034
 21
-14.974872
 31
0.0
  0
LINE
  8
0
 62
     0
 10
172.855978
 20
-15.013455
 30
0.0
 11
172.894561
 21
-14.974872
 31
0.0
  0
LINE
  8
0
 62
     0
 10
172.855978
 20
-15.004616
 30
0.0
 11
172.885722
 21
-14.974872
 31
0.0
  0
LINE
  8
0
 62
     0
 10
172.855978
 20
-14.995777
 30
0.0
 11
172.876884
 21
-14.974872
 31
0.0
  0
LINE
  8
0
 62
     0
 10
172.855978
 20
-14.986938
 30
0.0
 11
172.868045
 21
-14.974872
 31
0.0
  0
LINE
  8
0
 62
     0
 10
172.855978
 20
-14.978099
 30
0.0
 11
172.859206
 21
-14.974872
 31
0.0
  0
LINE
  8
0
 62
     0
 10
172.855978
 20
-15.057649
 30
0.0
 11
172.917365
 21
-14.996262
 31
0.0
  0
LINE
  8
0
 62
     0
 10
172.855978
 20
-15.066488
 30
0.0
 11
172.916584
 21
-15.005882
 31
0.0
  0
LINE
  8
0
 62
     0
 10
172.856433
 20
-15.074872
 30
0.0
 11
172.915802
 21
-15.015503
 31
0.0
  0
LINE
  8
0
 62
     0
 10
172.865272
 20
-15.074872
 30
0.0
 11
172.91502
 21
-15.025123
 31
0.0
  0
LINE
  8
0
 62
     0
 10
172.874111
 20
-15.074872
 30
0.0
 11
172.914239
 21
-15.034744
 31
0.0
  0
LINE
  8
0
 62
     0
 10
172.88295
 20
-15.074872
 30
0.0
 11
172.913457
 21
-15.044364
 31
0.0
  0
LINE
  8
0
 62
     0
 10
172.891788
 20
-15.074872
 30
0.0
 11
172.912675
 21
-15.053985
 31
0.0
  0
LINE
  8
0
 62
     0
 10
172.900627
 20
-15.074872
 30
0.0
 11
172.911894
 21
-15.063605
 31
0.0
  0
LINE
  8
0
 62
     0
 10
172.909466
 20
-15.074872
 30
0.0
 11
172.911112
 21
-15.073226
 31
0.0
  0
LINE
  8
0
 62
     0
 10
172.193521
 20
-15.074872
 30
0.0
 11
172.195978
 21
-15.072414
 31
0.0
  0
LINE
  8
0
 62
     0
 10
172.184682
 20
-15.074872
 30
0.0
 11
172.195978
 21
-15.063575
 31
0.0
  0
LINE
  8
0
 62
     0
 10
172.175843
 20
-15.074872
 30
0.0
 11
172.195978
 21
-15.054736
 31
0.0
  0
LINE
  8
0
 62
     0
 10
172.167004
 20
-15.074872
 30
0.0
 11
172.195978
 21
-15.045898
 31
0.0
  0
LINE
  8
0
 62
     0
 10
172.158165
 20
-15.074872
 30
0.0
 11
172.195978
 21
-15.037059
 31
0.0
  0
LINE
  8
0
 62
     0
 10
172.149326
 20
-15.074872
 30
0.0
 11
172.195978
 21
-15.02822
 31
0.0
  0
LINE
  8
0
 62
     0
 10
172.140941
 20
-15.074418
 30
0.0
 11
172.195978
 21
-15.019381
 31
0.0
  0
LINE
  8
0
 62
     0
 10
172.140277
 20
-15.066243
 30
0.0
 11
172.195978
 21
-15.010542
 31
0.0
  0
LINE
  8
0
 62
     0
 10
172.139613
 20
-15.058069
 30
0.0
 11
172.195978
 21
-15.001703
 31
0.0
  0
LINE
  8
0
 62
     0
 10
172.138949
 20
-15.049894
 30
0.0
 11
172.195978
 21
-14.992865
 31
0.0
  0
LINE
  8
0
 62
     0
 10
172.138285
 20
-15.041719
 30
0.0
 11
172.195978
 21
-14.984026
 31
0.0
  0
LINE
  8
0
 62
     0
 10
172.13762
 20
-15.033545
 30
0.0
 11
172.195978
 21
-14.975187
 31
0.0
  0
LINE
  8
0
 62
     0
 10
172.136956
 20
-15.02537
 30
0.0
 11
172.187455
 21
-14.974872
 31
0.0
  0
LINE
  8
0
 62
     0
 10
172.136292
 20
-15.017195
 30
0.0
 11
172.178616
 21
-14.974872
 31
0.0
  0
LINE
  8
0
 62
     0
 10
172.135628
 20
-15.009021
 30
0.0
 11
172.169777
 21
-14.974872
 31
0.0
  0
LINE
  8
0
 62
     0
 10
172.134964
 20
-15.000846
 30
0.0
 11
172.160938
 21
-14.974872
 31
0.0
  0
LINE
  8
0
 62
     0
 10
172.134299
 20
-14.992671
 30
0.0
 11
172.152099
 21
-14.974872
 31
0.0
  0
LINE
  8
0
 62
     0
 10
172.133635
 20
-14.984497
 30
0.0
 11
172.14326
 21
-14.974872
 31
0.0
  0
LINE
  8
0
 62
     0
 10
172.132971
 20
-14.976322
 30
0.0
 11
172.134422
 21
-14.974872
 31
0.0
  0
LINE
  8
0
 10
172.132853
 20
-14.974872
 30
0.0
 11
172.140978
 21
-15.074872
 31
0.0
  0
LINE
  8
0
 10
172.140978
 20
-15.074872
 30
0.0
 11
172.195978
 21
-15.074872
 31
0.0
  0
LINE
  8
0
 10
172.845978
 20
-15.084872
 30
0.0
 11
172.920199
 21
-15.084872
 31
0.0
  0
LINE
  8
0
 10
172.920199
 20
-15.084872
 30
0.0
 11
172.92907
 21
-14.975681
 31
0.0
  0
LINE
  8
0
 10
172.835978
 20
-15.094872
 30
0.0
 11
172.929419
 21
-15.094872
 31
0.0
  0
LINE
  8
0
 10
172.929419
 20
-15.094872
 30
0.0
 11
172.939037
 21
-14.976491
 31
0.0
  0
LINE
  8
0
 10
172.845978
 20
-15.084872
 30
0.0
 11
172.920199
 21
-15.084872
 31
0.0
  0
LINE
  8
0
 10
172.920199
 20
-15.084872
 30
0.0
 11
172.92907
 21
-14.975681
 31
0.0
  0
LINE
  8
0
 10
172.845978
 20
-15.084872
 30
0.0
 11
172.920199
 21
-15.084872
 31
0.0
  0
LINE
  8
0
 10
172.920199
 20
-15.084872
 30
0.0
 11
172.92907
 21
-14.975681
 31
0.0
  0
LINE
  8
0
 10
172.122886
 20
-14.975681
 30
0.0
 11
172.131758
 21
-15.084872
 31
0.0
  0
LINE
  8
0
 10
172.131758
 20
-15.084872
 30
0.0
 11
172.195978
 21
-15.084872
 31
0.0
  0
LINE
  8
0
 10
172.122886
 20
-14.975681
 30
0.0
 11
172.131758
 21
-15.084872
 31
0.0
  0
LINE
  8
0
 10
172.131758
 20
-15.084872
 30
0.0
 11
172.195978
 21
-15.084872
 31
0.0
  0
LINE
  8
0
 10
172.112919
 20
-14.976491
 30
0.0
 11
172.122537
 21
-15.094872
 31
0.0
  0
LINE
  8
0
 10
172.122537
 20
-15.094872
 30
0.0
 11
172.195978
 21
-15.094872
 31
0.0
  0
LINE
  8
0
 10
172.855978
 20
-15.084872
 30
0.0
 11
172.684575
 21
-15.084872
 31
0.0
  0
LINE
  8
0
 10
172.684575
 20
-15.084872
 30
0.0
 11
172.673655
 21
-15.15683
 31
0.0
  0
LINE
  8
0
 10
172.673655
 20
-15.15683
 30
0.0
 11
172.640068
 21
-15.222567
 31
0.0
  0
LINE
  8
0
 10
172.640068
 20
-15.222567
 30
0.0
 11
172.585798
 21
-15.269777
 31
0.0
  0
LINE
  8
0
 10
172.585798
 20
-15.269777
 30
0.0
 11
172.525978
 21
-15.285199
 31
0.0
  0
LINE
  8
0
 10
172.525978
 20
-15.285199
 30
0.0
 11
172.466158
 21
-15.269777
 31
0.0
  0
LINE
  8
0
 10
172.466158
 20
-15.269777
 30
0.0
 11
172.411888
 21
-15.222567
 31
0.0
  0
LINE
  8
0
 10
172.411888
 20
-15.222567
 30
0.0
 11
172.378301
 21
-15.15683
 31
0.0
  0
LINE
  8
0
 10
172.378301
 20
-15.15683
 30
0.0
 11
172.367381
 21
-15.084872
 31
0.0
  0
LINE
  8
0
 10
172.367381
 20
-15.084872
 30
0.0
 11
172.185978
 21
-15.084872
 31
0.0
  0
LINE
  8
0
 10
172.855978
 20
-15.094872
 30
0.0
 11
172.693172
 21
-15.094872
 31
0.0
  0
LINE
  8
0
 10
172.693172
 20
-15.094872
 30
0.0
 11
172.683298
 21
-15.159935
 31
0.0
  0
LINE
  8
0
 10
172.683298
 20
-15.159935
 30
0.0
 11
172.648092
 21
-15.228841
 31
0.0
  0
LINE
  8
0
 10
172.648092
 20
-15.228841
 30
0.0
 11
172.590581
 21
-15.278872
 31
0.0
  0
LINE
  8
0
 10
172.590581
 20
-15.278872
 30
0.0
 11
172.525978
 21
-15.295525
 31
0.0
  0
LINE
  8
0
 10
172.525978
 20
-15.295525
 30
0.0
 11
172.461376
 21
-15.278872
 31
0.0
  0
LINE
  8
0
 10
172.461376
 20
-15.278872
 30
0.0
 11
172.403864
 21
-15.228841
 31
0.0
  0
LINE
  8
0
 10
172.403864
 20
-15.228841
 30
0.0
 11
172.368658
 21
-15.159935
 31
0.0
  0
LINE
  8
0
 10
172.368658
 20
-15.159935
 30
0.0
 11
172.358784
 21
-15.094872
 31
0.0
  0
LINE
  8
0
 10
172.358784
 20
-15.094872
 30
0.0
 11
172.175978
 21
-15.094872
 31
0.0
  0
LINE
  8
0
 10
172.855978
 20
-15.074872
 30
0.0
 11
172.675978
 21
-15.074872
 31
0.0
  0
LINE
  8
0
 10
172.675978
 20
-15.074872
 30
0.0
 11
172.664012
 21
-15.153726
 31
0.0
  0
LINE
  8
0
 10
172.664012
 20
-15.153726
 30
0.0
 11
172.632044
 21
-15.216293
 31
0.0
  0
LINE
  8
0
 10
172.632044
 20
-15.216293
 30
0.0
 11
172.581016
 21
-15.260683
 31
0.0
  0
LINE
  8
0
 10
172.581016
 20
-15.260683
 30
0.0
 11
172.525978
 21
-15.274872
 31
0.0
  0
LINE
  8
0
 10
172.525978
 20
-15.274872
 30
0.0
 11
172.47094
 21
-15.260683
 31
0.0
  0
LINE
  8
0
 10
172.47094
 20
-15.260683
 30
0.0
 11
172.419912
 21
-15.216293
 31
0.0
  0
LINE
  8
0
 10
172.419912
 20
-15.216293
 30
0.0
 11
172.387944
 21
-15.153726
 31
0.0
  0
LINE
  8
0
 10
172.387944
 20
-15.153726
 30
0.0
 11
172.375978
 21
-15.074872
 31
0.0
  0
LINE
  8
0
 10
172.375978
 20
-15.074872
 30
0.0
 11
172.195978
 21
-15.074872
 31
0.0
  0
LINE
  8
0
 10
172.195978
 20
-15.074872
 30
0.0
 11
172.195978
 21
-14.974872
 31
0.0
  0
LINE
  8
0
 10
172.195978
 20
-14.974872
 30
0.0
 11
172.132853
 21
-14.974872
 31
0.0
  0
LINE
  8
0
 10
172.132853
 20
-14.974872
 30
0.0
 11
172.075978
 21
-14.274872
 31
0.0
  0
LINE
  8
0
 10
172.075978
 20
-14.274872
 30
0.0
 11
172.108236
 21
-14.145674
 31
0.0
  0
LINE
  8
0
 10
172.108236
 20
-14.145674
 30
0.0
 11
172.20778
 21
-14.027384
 31
0.0
  0
LINE
  8
0
 10
172.20778
 20
-14.027384
 30
0.0
 11
172.349116
 21
-13.952658
 31
0.0
  0
LINE
  8
0
 10
172.349116
 20
-13.952658
 30
0.0
 11
172.525978
 21
-13.924872
 31
0.0
  0
LINE
  8
0
 10
172.525978
 20
-13.924872
 30
0.0
 11
172.702841
 21
-13.952658
 31
0.0
  0
LINE
  8
0
 10
172.702841
 20
-13.952658
 30
0.0
 11
172.844176
 21
-14.027384
 31
0.0
  0
LINE
  8
0
 10
172.844176
 20
-14.027384
 30
0.0
 11
172.94372
 21
-14.145674
 31
0.0
  0
LINE
  8
0
 10
172.94372
 20
-14.145674
 30
0.0
 11
172.975978
 21
-14.274872
 31
0.0
  0
LINE
  8
0
 10
172.975978
 20
-14.274872
 30
0.0
 11
172.919103
 21
-14.974872
 31
0.0
  0
LINE
  8
0
 10
172.919103
 20
-14.974872
 30
0.0
 11
172.855978
 21
-14.974872
 31
0.0
  0
LINE
  8
0
 10
172.855978
 20
-14.974872
 30
0.0
 11
172.855978
 21
-15.074872
 31
0.0
  0
LINE
  8
0
 10
172.855978
 20
-15.074872
 30
0.0
 11
172.910978
 21
-15.074872
 31
0.0
  0
LINE
  8
0
 10
172.910978
 20
-15.074872
 30
0.0
 11
172.919103
 21
-14.974872
 31
0.0
  0
LINE
  8
0
 10
172.114412
 20
-14.994872
 30
0.0
 11
172.055778
 21
-14.273215
 31
0.0
  0
LINE
  8
0
 10
172.055778
 20
-14.273215
 30
0.0
 11
172.089953
 21
-14.136338
 31
0.0
  0
LINE
  8
0
 10
172.089953
 20
-14.136338
 30
0.0
 11
172.194987
 21
-14.011525
 31
0.0
  0
LINE
  8
0
 10
172.194987
 20
-14.011525
 30
0.0
 11
172.342716
 21
-13.933418
 31
0.0
  0
LINE
  8
0
 10
172.342716
 20
-13.933418
 30
0.0
 11
172.525978
 21
-13.904626
 31
0.0
  0
LINE
  8
0
 10
172.525978
 20
-13.904626
 30
0.0
 11
172.70924
 21
-13.933418
 31
0.0
  0
LINE
  8
0
 10
172.70924
 20
-13.933418
 30
0.0
 11
172.85697
 21
-14.011525
 31
0.0
  0
LINE
  8
0
 10
172.85697
 20
-14.011525
 30
0.0
 11
172.962003
 21
-14.136338
 31
0.0
  0
LINE
  8
0
 10
172.962003
 20
-14.136338
 30
0.0
 11
172.996179
 21
-14.273215
 31
0.0
  0
LINE
  8
0
 10
172.996179
 20
-14.273215
 30
0.0
 11
172.937544
 21
-14.994872
 31
0.0
  0
LINE
  8
0
 10
172.123633
 20
-14.984872
 30
0.0
 11
172.065878
 21
-14.274044
 31
0.0
  0
LINE
  8
0
 10
172.065878
 20
-14.274044
 30
0.0
 11
172.099095
 21
-14.141006
 31
0.0
  0
LINE
  8
0
 10
172.099095
 20
-14.141006
 30
0.0
 11
172.201383
 21
-14.019455
 31
0.0
  0
LINE
  8
0
 10
172.201383
 20
-14.019455
 30
0.0
 11
172.345916
 21
-13.943038
 31
0.0
  0
LINE
  8
0
 10
172.345916
 20
-13.943038
 30
0.0
 11
172.525978
 21
-13.914749
 31
0.0
  0
LINE
  8
0
 10
172.525978
 20
-13.914749
 30
0.0
 11
172.70604
 21
-13.943038
 31
0.0
  0
LINE
  8
0
 10
172.70604
 20
-13.943038
 30
0.0
 11
172.850573
 21
-14.019455
 31
0.0
  0
LINE
  8
0
 10
172.850573
 20
-14.019455
 30
0.0
 11
172.952862
 21
-14.141006
 31
0.0
  0
LINE
  8
0
 10
172.952862
 20
-14.141006
 30
0.0
 11
172.986078
 21
-14.274044
 31
0.0
  0
LINE
  8
0
 10
172.986078
 20
-14.274044
 30
0.0
 11
172.928324
 21
-14.984872
 31
0.0
  0
ENDSEC
  0
EOF
