  0
SECTION
  2
HEADER
  9
$ACADVER
  1
AC1009
  9
$INSBASE
 10
0.0
 20
0.0
 30
0.0
  9
$EXTMIN
 10
281.396000
 20
29.897000
 30
-2147483.648000
  9
$EXTMAX
 10
291.896000
 20
44.747000
 30
0.000000
  9
$LIMMIN
 10
280.396000
 20
28.897000
  9
$LIMMAX
 10
292.896000
 20
43.747000
  9
$ORTHOMODE
 70
     0
  9
$REGENMODE
 70
     1
  9
$FILLMODE
 70
     1
  9
$QTEXTMODE
 70
     0
  9
$MIRRTEXT
 70
     1
  9
$DRAGMODE
 70
     2
  9
$LTSCALE
 40
1.0
  9
$OSMODE
 70
     0
  9
$ATTMODE
 70
     1
  9
$TEXTSIZE
 40
0.2
  9
$TRACEWID
 40
0.05
  9
$TEXTSTYLE
  7
STANDARD
  9
$CLAYER
  8
0
  9
$CELTYPE
  6
BYLAYER
  9
$CECOLOR
 62
   256
  9
$DIMSCALE
 40
1.0
  9
$DIMASZ
 40
0.18
  9
$DIMEXO
 40
0.0625
  9
$DIMDLI
 40
0.38
  9
$DIMRND
 40
0.0
  9
$DIMDLE
 40
0.0
  9
$DIMEXE
 40
0.18
  9
$DIMTP
 40
0.0
  9
$DIMTM
 40
0.0
  9
$DIMTXT
 40
0.18
  9
$DIMCEN
 40
0.09
  9
$DIMTSZ
 40
0.0
  9
$DIMTOL
 70
     0
  9
$DIMLIM
 70
     0
  9
$DIMTIH
 70
     1
  9
$DIMTOH
 70
     1
  9
$DIMSE1
 70
     0
  9
$DIMSE2
 70
     0
  9
$DIMTAD
 70
     0
  9
$DIMZIN
 70
     0
  9
$DIMBLK
  1

  9
$DIMASO
 70
     1
  9
$DIMSHO
 70
     1
  9
$DIMPOST
  1

  9
$DIMAPOST
  1

  9
$DIMALT
 70
     0
  9
$DIMALTD
 70
     2
  9
$DIMALTF
 40
25.4
  9
$DIMLFAC
 40
1.0
  9
$DIMTOFL
 70
     0
  9
$DIMTVP
 40
0.0
  9
$DIMTIX
 70
     0
  9
$DIMSOXD
 70
     0
  9
$DIMSAH
 70
     0
  9
$DIMBLK1
  1

  9
$DIMBLK2
  1

  9
$DIMSTYLE
  2
*UNNAMED
  9
$DIMCLRD
 70
     0
  9
$DIMCLRE
 70
     0
  9
$DIMCLRT
 70
     0
  9
$DIMTFAC
 40
1.0
  9
$DIMGAP
 40
0.09
  9
$LUNITS
 70
     2
  9
$LUPREC
 70
     4
  9
$AXISMODE
 70
     0
  9
$AXISUNIT
 10
0.0
 20
0.0
  9
$SKETCHINC
 40
0.1
  9
$FILLETRAD
 40
0.0
  9
$AUNITS
 70
     0
  9
$AUPREC
 70
     0
  9
$MENU
  1
acad
  9
$ELEVATION
 40
0.0
  9
$PELEVATION
 40
0.0
  9
$THICKNESS
 40
0.0
  9
$LIMCHECK
 70
     0
  9
$BLIPMODE
 70
     1
  9
$CHAMFERA
 40
0.0
  9
$CHAMFERB
 40
0.0
  9
$SKPOLY
 70
     0
  9
$TDCREATE
 40
2448315.373408102
  9
$TDUPDATE
 40
2448315.373408102
  9
$TDINDWG
 40
0.0000000000
  9
$TDUSRTIMER
 40
0.0000000000
  9
$USRTIMER
 70
     1
  9
$ANGBASE
 50
0.0
  9
$ANGDIR
 70
     0
  9
$PDMODE
 70
     0
  9
$PDSIZE
 40
0.0
  9
$PLINEWID
 40
0.0
  9
$COORDS
 70
     0
  9
$SPLFRAME
 70
     0
  9
$SPLINETYPE
 70
     6
  9
$SPLINESEGS
 70
     8
  9
$ATTDIA
 70
     0
  9
$ATTREQ
 70
     1
  9
$HANDLING
 70
     0
  9
$HANDSEED
  5
0
  9
$SURFTAB1
 70
     6
  9
$SURFTAB2
 70
     6
  9
$SURFTYPE
 70
     6
  9
$SURFU
 70
     6
  9
$SURFV
 70
     6
  9
$UCSNAME
  2

  9
$UCSORG
 10
0.0
 20
0.0
 30
0.0
  9
$UCSXDIR
 10
1.0
 20
0.0
 30
0.0
  9
$UCSYDIR
 10
0.0
 20
1.0
 30
0.0
  9
$PUCSNAME
  2

  9
$PUCSORG
 10
0.0
 20
0.0
 30
0.0
  9
$PUCSXDIR
 10
1.0
 20
0.0
 30
0.0
  9
$PUCSYDIR
 10
0.0
 20
1.0
 30
0.0
  9
$USERI1
 70
     0
  9
$USERI2
 70
     0
  9
$USERI3
 70
     0
  9
$USERI4
 70
     0
  9
$USERI5
 70
     0
  9
$USERR1
 40
0.0
  9
$USERR2
 40
0.0
  9
$USERR3
 40
0.0
  9
$USERR4
 40
0.0
  9
$USERR5
 40
0.0
  9
$WORLDVIEW
 70
     1
  9
$SHADEDGE
 70
     3
  9
$SHADEDIF
 70
    70
  9
$TILEMODE
 70
     1
  9
$MAXACTVP
 70
    16
  9
$PINSBASE
 10
0.0
 20
0.0
 30
0.0
  9
$PLIMCHECK
 70
     0
  9
$PEXTMIN
 10
1.000000E+20
 20
1.000000E+20
 30
1.000000E+20
  9
$PEXTMAX
 10
-1.000000E+20
 20
-1.000000E+20
 30
-1.000000E+20
  9
$PLIMMIN
 10
0.0
 20
0.0
  9
$PLIMMAX
 10
12.0
 20
9.0
  9
$UNITMODE
 70
     0
  9
$VISRETAIN
 70
     0
  0
ENDSEC
  0
SECTION
  2
TABLES
  0
TABLE
  2
LTYPE
 70
    1
  0
LTYPE
  2
CONTINUOUS
 70
    64
3
Solid line
 72
    65
 73
0
 40
0.000000
  0
ENDTAB
  0
TABLE
  2
LAYER
 70
    8
  0
LAYER
  2
0
 70
    64
 62
7
  6
CONTINUOUS
  0
LAYER
  2
1
 70
    64
 62
7
  6
CONTINUOUS
  0
LAYER
  2
7
 70
    64
 62
7
  6
CONTINUOUS
  0
LAYER
  2
8
 70
    64
 62
7
  6
CONTINUOUS
  0
LAYER
  2
9
 70
    64
 62
7
  6
CONTINUOUS
  0
LAYER
  2
22
 70
    64
 62
7
  6
CONTINUOUS
  0
LAYER
  2
25
 70
    64
 62
7
  6
CONTINUOUS
  0
LAYER
  2
0
 70
    64
 62
7
  6
CONTINUOUS
  0
ENDTAB
  0
TABLE
  2
STYLE
 70
    1
  0
STYLE
  2
ROMANC
70
     0
 40
0.0
 41
1.0
 50
0.0
 71
     0
 42
0.2
  3
ROMANC
  4

  0
ENDTAB
  0
ENDSEC
  0
SECTION
  2
BLOCKS
  0
ENDSEC
  0
SECTION
  2
ENTITIES
  0
TEXT
  8
0
  6
CONTINUOUS
 40
0.100000
 10
286.909000
 20
41.324000
  1
2
  7
ROMANC
  0
TEXT
  8
0
  6
CONTINUOUS
 40
0.300000
 10
283.926000
 20
41.768000
  1
ESCALA  1:50
  7
ROMANC
  0
POLYLINE
  8
0
  6
CONTINUOUS
 66
     1
 70
     1
  0
VERTEX
  8
0
  6
CONTINUOUS
 10
281.396000
 20
44.747000
  0
VERTEX
  8
0
  6
CONTINUOUS
 10
291.896000
 20
44.747000
  0
VERTEX
  8
0
  6
CONTINUOUS
 10
291.896000
 20
29.897000
  0
VERTEX
  8
0
  6
CONTINUOUS
 10
281.396000
 20
29.897000
  0
SEQEND
  8
0
  0
TEXT
  8
0
  6
CONTINUOUS
 40
0.300000
 10
283.926000
 20
42.381000
  1
TIPUS   T92
  7
ROMANC
  0
TEXT
  8
0
  6
CONTINUOUS
 40
0.300000
 10
283.922000
 20
40.529000
  1
P = 39 dm
  7
ROMANC
  0
TEXT
  8
0
  6
CONTINUOUS
 40
0.300000
 10
283.945000
 20
41.099000
  1
S = 93 dm
  7
ROMANC
  0
LINE
  8
1
  6
CONTINUOUS
 10
285.399000
 20
35.750000
 11
285.529000
 21
34.800000
  0
LINE
  8
1
  6
CONTINUOUS
 10
285.529000
 20
34.800000
 11
285.599000
 21
34.800000
  0
ARC
  8
1
  6
CONTINUOUS
 10
285.799000
 20
34.858333
 40
0.208333
 50
196.260206
 51
343.739797
  0
TEXT
  8
1
  6
CONTINUOUS
 40
0.075000
 10
285.105000
 20
34.528000
  1
0.07
  7
ROMANC
  0
LINE
  8
1
  6
CONTINUOUS
 10
285.455000
 20
34.565000
 11
285.529000
 21
34.565000
  0
LINE
  8
1
  6
CONTINUOUS
 10
285.749000
 20
34.565000
 11
285.599000
 21
34.565000
  0
LINE
  8
1
  6
CONTINUOUS
 10
285.566000
 20
34.584000
 11
285.492000
 21
34.546000
  0
LINE
  8
1
  6
CONTINUOUS
 10
285.562000
 20
34.546000
 11
285.636000
 21
34.584000
  0
LINE
  8
1
  6
CONTINUOUS
 10
285.529000
 20
34.762000
 11
285.529000
 21
34.527000
  0
LINE
  8
1
  6
CONTINUOUS
 10
285.599000
 20
34.762000
 11
285.599000
 21
34.527000
  0
LINE
  8
1
  6
CONTINUOUS
 10
285.999000
 20
34.800000
 11
286.069000
 21
34.800000
  0
LINE
  8
1
  6
CONTINUOUS
 10
286.069000
 20
34.800000
 11
286.199000
 21
35.750000
  0
TEXT
  8
1
  6
CONTINUOUS
 40
0.075000
 10
286.321000
 20
34.528000
  1
0.07
  7
ROMANC
  0
LINE
  8
1
  6
CONTINUOUS
 10
285.849000
 20
34.565000
 11
285.999000
 21
34.565000
  0
LINE
  8
1
  6
CONTINUOUS
 10
286.283000
 20
34.565000
 11
286.069000
 21
34.565000
  0
LINE
  8
1
  6
CONTINUOUS
 10
286.036000
 20
34.584000
 11
285.962000
 21
34.546000
  0
LINE
  8
1
  6
CONTINUOUS
 10
286.032000
 20
34.546000
 11
286.106000
 21
34.584000
  0
LINE
  8
1
  6
CONTINUOUS
 10
285.999000
 20
34.762000
 11
285.999000
 21
34.527000
  0
LINE
  8
1
  6
CONTINUOUS
 10
286.069000
 20
34.762000
 11
286.069000
 21
34.527000
  0
TEXT
  8
1
  6
CONTINUOUS
 40
0.075000
 10
285.677000
 20
34.406000
  1
0.40
  7
ROMANC
  0
LINE
  8
1
  6
CONTINUOUS
 10
285.449000
 20
34.444000
 11
285.599000
 21
34.444000
  0
LINE
  8
1
  6
CONTINUOUS
 10
286.149000
 20
34.444000
 11
285.999000
 21
34.444000
  0
LINE
  8
1
  6
CONTINUOUS
 10
285.636000
 20
34.463000
 11
285.562000
 21
34.425000
  0
LINE
  8
1
  6
CONTINUOUS
 10
285.962000
 20
34.425000
 11
286.036000
 21
34.463000
  0
LINE
  8
1
  6
CONTINUOUS
 10
285.599000
 20
34.762000
 11
285.599000
 21
34.406000
  0
LINE
  8
1
  6
CONTINUOUS
 10
285.999000
 20
34.762000
 11
285.999000
 21
34.406000
  0
TEXT
  8
1
  6
CONTINUOUS
 40
0.075000
 10
285.677000
 20
34.276000
  1
0.54
  7
ROMANC
  0
LINE
  8
1
  6
CONTINUOUS
 10
285.379000
 20
34.314000
 11
285.529000
 21
34.314000
  0
LINE
  8
1
  6
CONTINUOUS
 10
286.219000
 20
34.314000
 11
286.069000
 21
34.314000
  0
LINE
  8
1
  6
CONTINUOUS
 10
285.566000
 20
34.333000
 11
285.492000
 21
34.295000
  0
LINE
  8
1
  6
CONTINUOUS
 10
286.032000
 20
34.295000
 11
286.106000
 21
34.333000
  0
LINE
  8
1
  6
CONTINUOUS
 10
285.529000
 20
34.762000
 11
285.529000
 21
34.276000
  0
LINE
  8
1
  6
CONTINUOUS
 10
286.069000
 20
34.762000
 11
286.069000
 21
34.276000
  0
ARC
  8
1
  6
CONTINUOUS
 10
285.799000
 20
35.750000
 40
0.400000
 50
360.000000
 51
540.000000
  0
TEXT
  8
1
  6
CONTINUOUS
 40
0.075000
 10
285.680000
 20
36.266000
  1
0.80
  7
ROMANC
  0
LINE
  8
1
  6
CONTINUOUS
 10
285.642000
 20
36.304000
 11
285.399000
 21
36.304000
  0
LINE
  8
1
  6
CONTINUOUS
 10
285.954000
 20
36.304000
 11
286.199000
 21
36.304000
  0
LINE
  8
1
  6
CONTINUOUS
 10
285.362000
 20
36.285000
 11
285.436000
 21
36.323000
  0
LINE
  8
1
  6
CONTINUOUS
 10
286.236000
 20
36.323000
 11
286.162000
 21
36.285000
  0
LINE
  8
1
  6
CONTINUOUS
 10
285.399000
 20
35.788000
 11
285.399000
 21
36.342000
  0
LINE
  8
1
  6
CONTINUOUS
 10
286.199000
 20
35.788000
 11
286.199000
 21
36.342000
  0
TEXT
  8
1
  6
CONTINUOUS
 40
0.075000
 10
286.272000
 20
34.967000
  1
0.15
 50
90.000000
  7
ROMANC
  0
LINE
  8
1
  6
CONTINUOUS
 10
286.235000
 20
34.500000
 11
286.235000
 21
34.650000
  0
LINE
  8
1
  6
CONTINUOUS
 10
286.235000
 20
34.929000
 11
286.235000
 21
34.800000
  0
LINE
  8
1
  6
CONTINUOUS
 10
286.216000
 20
34.688000
 11
286.254000
 21
34.612000
  0
LINE
  8
1
  6
CONTINUOUS
 10
286.254000
 20
34.762000
 11
286.216000
 21
34.838000
  0
LINE
  8
1
  6
CONTINUOUS
 10
285.837000
 20
34.650000
 11
286.273000
 21
34.650000
  0
LINE
  8
1
  6
CONTINUOUS
 10
286.107000
 20
34.800000
 11
286.273000
 21
34.800000
  0
TEXT
  8
1
  6
CONTINUOUS
 40
0.075000
 10
286.386000
 20
35.156000
  1
0.95
 50
90.000000
  7
ROMANC
  0
LINE
  8
1
  6
CONTINUOUS
 10
286.348000
 20
35.118000
 11
286.348000
 21
34.800000
  0
LINE
  8
1
  6
CONTINUOUS
 10
286.348000
 20
35.430000
 11
286.348000
 21
35.750000
  0
LINE
  8
1
  6
CONTINUOUS
 10
286.367000
 20
34.762000
 11
286.329000
 21
34.838000
  0
LINE
  8
1
  6
CONTINUOUS
 10
286.329000
 20
35.788000
 11
286.367000
 21
35.712000
  0
LINE
  8
1
  6
CONTINUOUS
 10
286.107000
 20
34.800000
 11
286.386000
 21
34.800000
  0
LINE
  8
1
  6
CONTINUOUS
 10
286.237000
 20
35.750000
 11
286.386000
 21
35.750000
  0
TEXT
  8
1
  6
CONTINUOUS
 40
0.075000
 10
286.386000
 20
35.828000
  1
0.40
 50
90.000000
  7
ROMANC
  0
LINE
  8
1
  6
CONTINUOUS
 10
286.348000
 20
35.600000
 11
286.348000
 21
35.750000
  0
LINE
  8
1
  6
CONTINUOUS
 10
286.348000
 20
36.300000
 11
286.348000
 21
36.150000
  0
LINE
  8
1
  6
CONTINUOUS
 10
286.329000
 20
35.788000
 11
286.367000
 21
35.712000
  0
LINE
  8
1
  6
CONTINUOUS
 10
286.367000
 20
36.112000
 11
286.329000
 21
36.188000
  0
LINE
  8
1
  6
CONTINUOUS
 10
285.837000
 20
36.150000
 11
286.386000
 21
36.150000
  0
TEXT
  8
1
  6
CONTINUOUS
 40
0.075000
 10
286.604000
 20
35.290000
  1
1.50
 50
90.000000
  7
ROMANC
  0
LINE
  8
1
  6
CONTINUOUS
 10
286.567000
 20
35.252000
 11
286.567000
 21
34.650000
  0
LINE
  8
1
  6
CONTINUOUS
 10
286.567000
 20
35.547000
 11
286.567000
 21
36.150000
  0
LINE
  8
1
  6
CONTINUOUS
 10
286.586000
 20
34.612000
 11
286.548000
 21
34.688000
  0
LINE
  8
1
  6
CONTINUOUS
 10
286.548000
 20
36.188000
 11
286.586000
 21
36.112000
  0
LINE
  8
1
  6
CONTINUOUS
 10
285.837000
 20
34.650000
 11
286.605000
 21
34.650000
  0
LINE
  8
1
  6
CONTINUOUS
 10
285.837000
 20
36.150000
 11
286.605000
 21
36.150000
  0
ARC
  8
1
  6
CONTINUOUS
 10
285.799000
 20
35.750000
 40
0.410000
 50
360.709633
 51
540.284661
  0
ARC
  8
1
  6
CONTINUOUS
 10
285.799000
 20
35.750000
 40
0.420000
 50
360.567147
 51
540.420536
  0
LINE
  8
1
  6
CONTINUOUS
 10
285.389000
 20
35.748000
 11
285.520000
 21
34.790000
  0
LINE
  8
1
  6
CONTINUOUS
 10
285.379000
 20
35.747000
 11
285.511000
 21
34.780000
  0
LINE
  8
1
  6
CONTINUOUS
 10
285.520000
 20
34.790000
 11
285.592000
 21
34.790000
  0
LINE
  8
1
  6
CONTINUOUS
 10
285.511000
 20
34.780000
 11
285.585000
 21
34.780000
  0
ARC
  8
1
  6
CONTINUOUS
 10
285.799000
 20
34.858333
 40
0.218333
 50
198.238736
 51
341.761264
  0
ARC
  8
1
  6
CONTINUOUS
 10
285.799000
 20
34.858333
 40
0.228333
 50
200.063764
 51
339.936236
  0
LINE
  8
1
  6
CONTINUOUS
 10
286.006000
 20
34.790000
 11
286.077000
 21
34.790000
  0
LINE
  8
1
  6
CONTINUOUS
 10
286.013000
 20
34.780000
 11
286.086000
 21
34.780000
  0
LINE
  8
1
  6
CONTINUOUS
 10
286.077000
 20
34.790000
 11
286.209000
 21
35.755000
  0
LINE
  8
1
  6
CONTINUOUS
 10
286.086000
 20
34.780000
 11
286.219000
 21
35.754000
  0
ENDSEC
  0
EOF
