  0
SECTION
  2
HEADER
  9
$ACADVER
  1
AC1009
  9
$INSBASE
 10
0.0
 20
0.0
 30
0.0
  9
$EXTMIN
 10
281.396000
 20
29.897000
 30
-2147483.648000
  9
$EXTMAX
 10
291.896000
 20
44.747000
 30
0.000000
  9
$LIMMIN
 10
280.396000
 20
28.897000
  9
$LIMMAX
 10
292.896000
 20
43.747000
  9
$ORTHOMODE
 70
     0
  9
$REGENMODE
 70
     1
  9
$FILLMODE
 70
     1
  9
$QTEXTMODE
 70
     0
  9
$MIRRTEXT
 70
     1
  9
$DRAGMODE
 70
     2
  9
$LTSCALE
 40
1.0
  9
$OSMODE
 70
     0
  9
$ATTMODE
 70
     1
  9
$TEXTSIZE
 40
0.2
  9
$TRACEWID
 40
0.05
  9
$TEXTSTYLE
  7
STANDARD
  9
$CLAYER
  8
0
  9
$CELTYPE
  6
BYLAYER
  9
$CECOLOR
 62
   256
  9
$DIMSCALE
 40
1.0
  9
$DIMASZ
 40
0.18
  9
$DIMEXO
 40
0.0625
  9
$DIMDLI
 40
0.38
  9
$DIMRND
 40
0.0
  9
$DIMDLE
 40
0.0
  9
$DIMEXE
 40
0.18
  9
$DIMTP
 40
0.0
  9
$DIMTM
 40
0.0
  9
$DIMTXT
 40
0.18
  9
$DIMCEN
 40
0.09
  9
$DIMTSZ
 40
0.0
  9
$DIMTOL
 70
     0
  9
$DIMLIM
 70
     0
  9
$DIMTIH
 70
     1
  9
$DIMTOH
 70
     1
  9
$DIMSE1
 70
     0
  9
$DIMSE2
 70
     0
  9
$DIMTAD
 70
     0
  9
$DIMZIN
 70
     0
  9
$DIMBLK
  1

  9
$DIMASO
 70
     1
  9
$DIMSHO
 70
     1
  9
$DIMPOST
  1

  9
$DIMAPOST
  1

  9
$DIMALT
 70
     0
  9
$DIMALTD
 70
     2
  9
$DIMALTF
 40
25.4
  9
$DIMLFAC
 40
1.0
  9
$DIMTOFL
 70
     0
  9
$DIMTVP
 40
0.0
  9
$DIMTIX
 70
     0
  9
$DIMSOXD
 70
     0
  9
$DIMSAH
 70
     0
  9
$DIMBLK1
  1

  9
$DIMBLK2
  1

  9
$DIMSTYLE
  2
*UNNAMED
  9
$DIMCLRD
 70
     0
  9
$DIMCLRE
 70
     0
  9
$DIMCLRT
 70
     0
  9
$DIMTFAC
 40
1.0
  9
$DIMGAP
 40
0.09
  9
$LUNITS
 70
     2
  9
$LUPREC
 70
     4
  9
$AXISMODE
 70
     0
  9
$AXISUNIT
 10
0.0
 20
0.0
  9
$SKETCHINC
 40
0.1
  9
$FILLETRAD
 40
0.0
  9
$AUNITS
 70
     0
  9
$AUPREC
 70
     0
  9
$MENU
  1
acad
  9
$ELEVATION
 40
0.0
  9
$PELEVATION
 40
0.0
  9
$THICKNESS
 40
0.0
  9
$LIMCHECK
 70
     0
  9
$BLIPMODE
 70
     1
  9
$CHAMFERA
 40
0.0
  9
$CHAMFERB
 40
0.0
  9
$SKPOLY
 70
     0
  9
$TDCREATE
 40
2448315.373408102
  9
$TDUPDATE
 40
2448315.373408102
  9
$TDINDWG
 40
0.0000000000
  9
$TDUSRTIMER
 40
0.0000000000
  9
$USRTIMER
 70
     1
  9
$ANGBASE
 50
0.0
  9
$ANGDIR
 70
     0
  9
$PDMODE
 70
     0
  9
$PDSIZE
 40
0.0
  9
$PLINEWID
 40
0.0
  9
$COORDS
 70
     0
  9
$SPLFRAME
 70
     0
  9
$SPLINETYPE
 70
     6
  9
$SPLINESEGS
 70
     8
  9
$ATTDIA
 70
     0
  9
$ATTREQ
 70
     1
  9
$HANDLING
 70
     0
  9
$HANDSEED
  5
0
  9
$SURFTAB1
 70
     6
  9
$SURFTAB2
 70
     6
  9
$SURFTYPE
 70
     6
  9
$SURFU
 70
     6
  9
$SURFV
 70
     6
  9
$UCSNAME
  2

  9
$UCSORG
 10
0.0
 20
0.0
 30
0.0
  9
$UCSXDIR
 10
1.0
 20
0.0
 30
0.0
  9
$UCSYDIR
 10
0.0
 20
1.0
 30
0.0
  9
$PUCSNAME
  2

  9
$PUCSORG
 10
0.0
 20
0.0
 30
0.0
  9
$PUCSXDIR
 10
1.0
 20
0.0
 30
0.0
  9
$PUCSYDIR
 10
0.0
 20
1.0
 30
0.0
  9
$USERI1
 70
     0
  9
$USERI2
 70
     0
  9
$USERI3
 70
     0
  9
$USERI4
 70
     0
  9
$USERI5
 70
     0
  9
$USERR1
 40
0.0
  9
$USERR2
 40
0.0
  9
$USERR3
 40
0.0
  9
$USERR4
 40
0.0
  9
$USERR5
 40
0.0
  9
$WORLDVIEW
 70
     1
  9
$SHADEDGE
 70
     3
  9
$SHADEDIF
 70
    70
  9
$TILEMODE
 70
     1
  9
$MAXACTVP
 70
    16
  9
$PINSBASE
 10
0.0
 20
0.0
 30
0.0
  9
$PLIMCHECK
 70
     0
  9
$PEXTMIN
 10
1.000000E+20
 20
1.000000E+20
 30
1.000000E+20
  9
$PEXTMAX
 10
-1.000000E+20
 20
-1.000000E+20
 30
-1.000000E+20
  9
$PLIMMIN
 10
0.0
 20
0.0
  9
$PLIMMAX
 10
12.0
 20
9.0
  9
$UNITMODE
 70
     0
  9
$VISRETAIN
 70
     0
  0
ENDSEC
  0
SECTION
  2
TABLES
  0
TABLE
  2
LTYPE
 70
    1
  0
LTYPE
  2
CONTINUOUS
 70
    64
3
Solid line
 72
    65
 73
0
 40
0.000000
  0
ENDTAB
  0
TABLE
  2
LAYER
 70
    8
  0
LAYER
  2
0
 70
    64
 62
7
  6
CONTINUOUS
  0
LAYER
  2
1
 70
    64
 62
7
  6
CONTINUOUS
  0
LAYER
  2
7
 70
    64
 62
7
  6
CONTINUOUS
  0
LAYER
  2
8
 70
    64
 62
7
  6
CONTINUOUS
  0
LAYER
  2
9
 70
    64
 62
7
  6
CONTINUOUS
  0
LAYER
  2
22
 70
    64
 62
7
  6
CONTINUOUS
  0
LAYER
  2
25
 70
    64
 62
7
  6
CONTINUOUS
  0
LAYER
  2
0
 70
    64
 62
7
  6
CONTINUOUS
  0
ENDTAB
  0
TABLE
  2
STYLE
 70
    1
  0
STYLE
  2
ROMANC
70
     0
 40
0.0
 41
1.0
 50
0.0
 71
     0
 42
0.2
  3
ROMANC
  4

  0
ENDTAB
  0
ENDSEC
  0
SECTION
  2
BLOCKS
  0
ENDSEC
  0
SECTION
  2
ENTITIES
  0
TEXT
  8
0
  6
CONTINUOUS
 40
0.100000
 10
286.909000
 20
41.324000
  1
2
  7
ROMANC
  0
TEXT
  8
0
  6
CONTINUOUS
 40
0.300000
 10
283.926000
 20
41.768000
  1
ESCALA  1:50
  7
ROMANC
  0
POLYLINE
  8
0
  6
CONTINUOUS
 66
     1
 70
     1
  0
VERTEX
  8
0
  6
CONTINUOUS
 10
281.396000
 20
44.747000
  0
VERTEX
  8
0
  6
CONTINUOUS
 10
291.896000
 20
44.747000
  0
VERTEX
  8
0
  6
CONTINUOUS
 10
291.896000
 20
29.897000
  0
VERTEX
  8
0
  6
CONTINUOUS
 10
281.396000
 20
29.897000
  0
SEQEND
  8
0
  0
TEXT
  8
0
  6
CONTINUOUS
 40
0.300000
 10
283.926000
 20
42.381000
  1
TIPUS   T86
  7
ROMANC
  0
TEXT
  8
0
  6
CONTINUOUS
 40
0.300000
 10
283.922000
 20
40.529000
  1
P = 38 dm
  7
ROMANC
  0
TEXT
  8
0
  6
CONTINUOUS
 40
0.300000
 10
283.945000
 20
41.099000
  1
S = 91 dm
  7
ROMANC
  0
POLYLINE
  8
1
  6
CONTINUOUS
 66
     1
 70
     0
  0
VERTEX
  8
1
  6
CONTINUOUS
 10
286.043000
 20
34.615000
  0
VERTEX
  8
1
  6
CONTINUOUS
 10
286.243000
 20
34.615000
  0
VERTEX
  8
1
  6
CONTINUOUS
 10
286.243000
 20
35.465000
  0
VERTEX
  8
1
  6
CONTINUOUS
 10
285.243000
 20
35.465000
  0
VERTEX
  8
1
  6
CONTINUOUS
 10
285.243000
 20
34.615000
  0
VERTEX
  8
1
  6
CONTINUOUS
 10
285.443000
 20
34.615000
  0
SEQEND
  8
0
  0
ARC
  8
1
  6
CONTINUOUS
 10
285.743000
 20
34.840000
 40
0.375000
 50
216.869897
 51
323.130103
  0
TEXT
  8
1
  6
CONTINUOUS
 40
0.075000
 10
284.819000
 20
34.168000
  1
0.20
  7
ROMANC
  0
LINE
  8
1
  6
CONTINUOUS
 10
285.169000
 20
34.205000
 11
285.243000
 21
34.205000
  0
LINE
  8
1
  6
CONTINUOUS
 10
285.593000
 20
34.205000
 11
285.443000
 21
34.205000
  0
LINE
  8
1
  6
CONTINUOUS
 10
285.280000
 20
34.224000
 11
285.206000
 21
34.186000
  0
LINE
  8
1
  6
CONTINUOUS
 10
285.406000
 20
34.186000
 11
285.480000
 21
34.224000
  0
LINE
  8
1
  6
CONTINUOUS
 10
285.243000
 20
34.577000
 11
285.243000
 21
34.167000
  0
LINE
  8
1
  6
CONTINUOUS
 10
285.443000
 20
34.577000
 11
285.443000
 21
34.167000
  0
TEXT
  8
1
  6
CONTINUOUS
 40
0.075000
 10
285.624000
 20
34.252000
  1
0.60
  7
ROMANC
  0
LINE
  8
1
  6
CONTINUOUS
 10
285.293000
 20
34.289000
 11
285.443000
 21
34.289000
  0
LINE
  8
1
  6
CONTINUOUS
 10
286.193000
 20
34.289000
 11
286.043000
 21
34.289000
  0
LINE
  8
1
  6
CONTINUOUS
 10
285.480000
 20
34.308000
 11
285.406000
 21
34.270000
  0
LINE
  8
1
  6
CONTINUOUS
 10
286.006000
 20
34.270000
 11
286.080000
 21
34.308000
  0
LINE
  8
1
  6
CONTINUOUS
 10
285.443000
 20
34.577000
 11
285.443000
 21
34.251000
  0
LINE
  8
1
  6
CONTINUOUS
 10
286.043000
 20
34.577000
 11
286.043000
 21
34.251000
  0
TEXT
  8
1
  6
CONTINUOUS
 40
0.075000
 10
286.425000
 20
34.168000
  1
0.20
  7
ROMANC
  0
LINE
  8
1
  6
CONTINUOUS
 10
285.893000
 20
34.205000
 11
286.043000
 21
34.205000
  0
LINE
  8
1
  6
CONTINUOUS
 10
286.387000
 20
34.205000
 11
286.243000
 21
34.205000
  0
LINE
  8
1
  6
CONTINUOUS
 10
286.080000
 20
34.224000
 11
286.006000
 21
34.186000
  0
LINE
  8
1
  6
CONTINUOUS
 10
286.206000
 20
34.186000
 11
286.280000
 21
34.224000
  0
LINE
  8
1
  6
CONTINUOUS
 10
286.043000
 20
34.577000
 11
286.043000
 21
34.167000
  0
LINE
  8
1
  6
CONTINUOUS
 10
286.243000
 20
34.577000
 11
286.243000
 21
34.167000
  0
TEXT
  8
1
  6
CONTINUOUS
 40
0.075000
 10
286.444000
 20
34.754000
  1
0.15
 50
90.000000
  7
ROMANC
  0
LINE
  8
1
  6
CONTINUOUS
 10
286.407000
 20
34.315000
 11
286.407000
 21
34.465000
  0
LINE
  8
1
  6
CONTINUOUS
 10
286.407000
 20
34.716000
 11
286.407000
 21
34.615000
  0
LINE
  8
1
  6
CONTINUOUS
 10
286.388000
 20
34.502000
 11
286.426000
 21
34.428000
  0
LINE
  8
1
  6
CONTINUOUS
 10
286.426000
 20
34.578000
 11
286.388000
 21
34.652000
  0
LINE
  8
1
  6
CONTINUOUS
 10
285.781000
 20
34.465000
 11
286.445000
 21
34.465000
  0
LINE
  8
1
  6
CONTINUOUS
 10
286.281000
 20
34.615000
 11
286.445000
 21
34.615000
  0
TEXT
  8
1
  6
CONTINUOUS
 40
0.075000
 10
286.584000
 20
34.921000
  1
0.85
 50
90.000000
  7
ROMANC
  0
LINE
  8
1
  6
CONTINUOUS
 10
286.546000
 20
34.883000
 11
286.546000
 21
34.615000
  0
LINE
  8
1
  6
CONTINUOUS
 10
286.546000
 20
35.195000
 11
286.546000
 21
35.465000
  0
LINE
  8
1
  6
CONTINUOUS
 10
286.565000
 20
34.578000
 11
286.527000
 21
34.652000
  0
LINE
  8
1
  6
CONTINUOUS
 10
286.527000
 20
35.502000
 11
286.565000
 21
35.428000
  0
LINE
  8
1
  6
CONTINUOUS
 10
286.281000
 20
34.615000
 11
286.584000
 21
34.615000
  0
LINE
  8
1
  6
CONTINUOUS
 10
286.281000
 20
35.465000
 11
286.584000
 21
35.465000
  0
TEXT
  8
1
  6
CONTINUOUS
 40
0.075000
 10
286.738000
 20
34.940000
  1
1.00
 50
90.000000
  7
ROMANC
  0
LINE
  8
1
  6
CONTINUOUS
 10
286.700000
 20
34.902000
 11
286.700000
 21
34.465000
  0
LINE
  8
1
  6
CONTINUOUS
 10
286.700000
 20
35.197000
 11
286.700000
 21
35.465000
  0
LINE
  8
1
  6
CONTINUOUS
 10
286.719000
 20
34.428000
 11
286.681000
 21
34.502000
  0
LINE
  8
1
  6
CONTINUOUS
 10
286.681000
 20
35.502000
 11
286.719000
 21
35.428000
  0
LINE
  8
1
  6
CONTINUOUS
 10
285.781000
 20
34.465000
 11
286.738000
 21
34.465000
  0
LINE
  8
1
  6
CONTINUOUS
 10
286.281000
 20
35.465000
 11
286.738000
 21
35.465000
  0
TEXT
  8
1
  6
CONTINUOUS
 40
0.075000
 10
285.633000
 20
34.014000
  1
1.00
  7
ROMANC
  0
LINE
  8
1
  6
CONTINUOUS
 10
285.595000
 20
34.052000
 11
285.243000
 21
34.052000
  0
LINE
  8
1
  6
CONTINUOUS
 10
285.890000
 20
34.052000
 11
286.243000
 21
34.052000
  0
LINE
  8
1
  6
CONTINUOUS
 10
285.206000
 20
34.033000
 11
285.280000
 21
34.071000
  0
LINE
  8
1
  6
CONTINUOUS
 10
286.280000
 20
34.071000
 11
286.206000
 21
34.033000
  0
LINE
  8
1
  6
CONTINUOUS
 10
285.243000
 20
34.577000
 11
285.243000
 21
34.014000
  0
LINE
  8
1
  6
CONTINUOUS
 10
286.243000
 20
34.577000
 11
286.243000
 21
34.014000
  0
POLYLINE
  8
1
  6
CONTINUOUS
 66
     1
 70
     0
  0
VERTEX
  8
1
  6
CONTINUOUS
 10
286.048000
 20
34.605000
  0
VERTEX
  8
1
  6
CONTINUOUS
 10
286.253000
 20
34.605000
  0
VERTEX
  8
1
  6
CONTINUOUS
 10
286.253000
 20
35.475000
  0
VERTEX
  8
1
  6
CONTINUOUS
 10
285.233000
 20
35.475000
  0
VERTEX
  8
1
  6
CONTINUOUS
 10
285.233000
 20
34.605000
  0
VERTEX
  8
1
  6
CONTINUOUS
 10
285.438000
 20
34.605000
  0
SEQEND
  8
0
  0
POLYLINE
  8
1
  6
CONTINUOUS
 66
     1
 70
     0
  0
VERTEX
  8
1
  6
CONTINUOUS
 10
286.053000
 20
34.595000
  0
VERTEX
  8
1
  6
CONTINUOUS
 10
286.263000
 20
34.595000
  0
VERTEX
  8
1
  6
CONTINUOUS
 10
286.263000
 20
35.485000
  0
VERTEX
  8
1
  6
CONTINUOUS
 10
285.223000
 20
35.485000
  0
VERTEX
  8
1
  6
CONTINUOUS
 10
285.223000
 20
34.595000
  0
VERTEX
  8
1
  6
CONTINUOUS
 10
285.433000
 20
34.595000
  0
SEQEND
  8
0
  0
ARC
  8
1
  6
CONTINUOUS
 10
285.743000
 20
34.840000
 40
0.385000
 50
217.617681
 51
322.382319
  0
ARC
  8
1
  6
CONTINUOUS
 10
285.743000
 20
34.840000
 40
0.395000
 50
218.334625
 51
321.665375
  0
ENDSEC
  0
EOF
