  0
SECTION
  2
HEADER
  9
$ACADVER
  1
AC1009
  9
$INSBASE
 10
146.473306
 20
249.695552
 30
0.0
  9
$EXTMIN
 10
142.666072
 20
249.695552
 30
0.0
  9
$EXTMAX
 10
171.085595
 20
264.545552
 30
0.0
  9
$LIMMIN
 10
0.0
 20
0.0
  9
$LIMMAX
 10
410.0
 20
287.0
  9
$ORTHOMODE
 70
     1
  9
$REGENMODE
 70
     1
  9
$FILLMODE
 70
     1
  9
$QTEXTMODE
 70
     0
  9
$MIRRTEXT
 70
     1
  9
$DRAGMODE
 70
     2
  9
$LTSCALE
 40
25.0
  9
$OSMODE
 70
    32
  9
$ATTMODE
 70
     1
  9
$TEXTSIZE
 40
0.1
  9
$TRACEWID
 40
0.3
  9
$TEXTSTYLE
  7
STANDARD
  9
$CLAYER
  8
0
  9
$CELTYPE
  6
BYLAYER
  9
$CECOLOR
 62
   256
  9
$DIMSCALE
 40
1.0
  9
$DIMASZ
 40
3.5
  9
$DIMEXO
 40
0.1
  9
$DIMDLI
 40
7.0
  9
$DIMRND
 40
0.0
  9
$DIMDLE
 40
0.0
  9
$DIMEXE
 40
1.8
  9
$DIMTP
 40
0.0
  9
$DIMTM
 40
0.0
  9
$DIMTXT
 40
3.5
  9
$DIMCEN
 40
1.5
  9
$DIMTSZ
 40
0.0
  9
$DIMTOL
 70
     0
  9
$DIMLIM
 70
     0
  9
$DIMTIH
 70
     0
  9
$DIMTOH
 70
     0
  9
$DIMSE1
 70
     0
  9
$DIMSE2
 70
     0
  9
$DIMTAD
 70
     0
  9
$DIMZIN
 70
     0
  9
$DIMBLK
  1

  9
$DIMASO
 70
     1
  9
$DIMSHO
 70
     0
  9
$DIMPOST
  1

  9
$DIMAPOST
  1

  9
$DIMALT
 70
     0
  9
$DIMALTD
 70
     2
  9
$DIMALTF
 40
25.4
  9
$DIMLFAC
 40
1.0
  9
$DIMTOFL
 70
     0
  9
$DIMTVP
 40
0.0
  9
$DIMTIX
 70
     0
  9
$DIMSOXD
 70
     0
  9
$DIMSAH
 70
     0
  9
$DIMBLK1
  1

  9
$DIMBLK2
  1

  9
$DIMSTYLE
  2
*UNNAMED
  9
$DIMCLRD
 70
     0
  9
$DIMCLRE
 70
     0
  9
$DIMCLRT
 70
     0
  9
$DIMTFAC
 40
1.0
  9
$DIMGAP
 40
0.09
  9
$LUNITS
 70
     2
  9
$LUPREC
 70
     2
  9
$SKETCHINC
 40
1.0
  9
$FILLETRAD
 40
0.0
  9
$AUNITS
 70
     0
  9
$AUPREC
 70
     0
  9
$MENU
  1
acad
  9
$ELEVATION
 40
0.0
  9
$PELEVATION
 40
0.0
  9
$THICKNESS
 40
0.0
  9
$LIMCHECK
 70
     0
  9
$BLIPMODE
 70
     0
  9
$CHAMFERA
 40
0.0
  9
$CHAMFERB
 40
0.0
  9
$SKPOLY
 70
     0
  9
$TDCREATE
 40
2449960.522202777
  9
$TDUPDATE
 40
2450722.770092824
  9
$TDINDWG
 40
0.0272414352
  9
$TDUSRTIMER
 40
0.0272414352
  9
$USRTIMER
 70
     1
  9
$ANGBASE
 50
0.0
  9
$ANGDIR
 70
     0
  9
$PDMODE
 70
     0
  9
$PDSIZE
 40
0.0
  9
$PLINEWID
 40
0.0
  9
$COORDS
 70
     2
  9
$SPLFRAME
 70
     0
  9
$SPLINETYPE
 70
     6
  9
$SPLINESEGS
 70
     8
  9
$ATTDIA
 70
     0
  9
$ATTREQ
 70
     1
  9
$HANDLING
 70
     0
  9
$HANDSEED
  5
0
  9
$SURFTAB1
 70
     6
  9
$SURFTAB2
 70
     6
  9
$SURFTYPE
 70
     6
  9
$SURFU
 70
     6
  9
$SURFV
 70
     6
  9
$UCSNAME
  2

  9
$UCSORG
 10
0.0
 20
0.0
 30
0.0
  9
$UCSXDIR
 10
1.0
 20
0.0
 30
0.0
  9
$UCSYDIR
 10
0.0
 20
1.0
 30
0.0
  9
$PUCSNAME
  2

  9
$PUCSORG
 10
0.0
 20
0.0
 30
0.0
  9
$PUCSXDIR
 10
1.0
 20
0.0
 30
0.0
  9
$PUCSYDIR
 10
0.0
 20
1.0
 30
0.0
  9
$USERI1
 70
     0
  9
$USERI2
 70
     0
  9
$USERI3
 70
     0
  9
$USERI4
 70
     0
  9
$USERI5
 70
     0
  9
$USERR1
 40
0.0
  9
$USERR2
 40
0.0
  9
$USERR3
 40
0.0
  9
$USERR4
 40
0.0
  9
$USERR5
 40
0.0
  9
$WORLDVIEW
 70
     1
  9
$SHADEDGE
 70
     3
  9
$SHADEDIF
 70
    70
  9
$TILEMODE
 70
     1
  9
$MAXACTVP
 70
    16
  9
$PINSBASE
 10
0.0
 20
0.0
 30
0.0
  9
$PLIMCHECK
 70
     0
  9
$PEXTMIN
 10
1.000000E+20
 20
1.000000E+20
 30
1.000000E+20
  9
$PEXTMAX
 10
-1.000000E+20
 20
-1.000000E+20
 30
-1.000000E+20
  9
$PLIMMIN
 10
0.0
 20
0.0
  9
$PLIMMAX
 10
12.0
 20
9.0
  9
$UNITMODE
 70
     0
  9
$VISRETAIN
 70
     0
  9
$PLINEGEN
 70
     0
  9
$PSLTSCALE
 70
     0
  9
$TREEDEPTH
 70
  3020
  9
$DWGCODEPAGE
  3
iso8859-1
  0
ENDSEC
  0
SECTION
  2
TABLES
  0
TABLE
  2
VPORT
 70
     1
  0
VPORT
  2
*ACTIVE
 70
     0
 10
0.0
 20
0.0
 11
1.0
 21
1.0
 12
158.435157
 22
257.120552
 13
0.0
 23
0.0
 14
1.0
 24
1.0
 15
10.0
 25
10.0
 16
0.0
 26
0.0
 36
1.0
 17
0.0
 27
0.0
 37
0.0
 40
14.85
 41
1.611024
 42
50.0
 43
0.0
 44
0.0
 50
0.0
 51
0.0
 71
     0
 72
   100
 73
     1
 74
     0
 75
     0
 76
     0
 77
     0
 78
     0
  0
ENDTAB
  0
TABLE
  2
LTYPE
 70
     1
  0
LTYPE
  2
CONTINUOUS
 70
    64
  3
Solid Line
 72
    65
 73
     0
 40
0.0
  0
ENDTAB
  0
TABLE
  2
LAYER
 70
     6
  0
LAYER
  2
0
 70
    64
 62
     7
  6
CONTINUOUS
  0
LAYER
  2
SECCIO
 70
    64
 62
     7
  6
CONTINUOUS
  0
LAYER
  2
MESURA
 70
    64
 62
     7
  6
CONTINUOUS
  0
LAYER
  2
TEXTEP
 70
    64
 62
     7
  6
CONTINUOUS
  0
LAYER
  2
TEXTEG
 70
    64
 62
     7
  6
CONTINUOUS
  0
ENDTAB
  0
TABLE
  2
STYLE
 70
     2
  0
STYLE
  2
STANDARD
 70
    64
 40
0.0
 41
1.0
 50
0.0
 71
     0
 42
0.1
  3
txt
  4

  0
STYLE
  2
ROMANC
 70
    64
 40
0.0
 41
1.0
 50
0.0
 71
     0
 42
0.1
  3
romanc
  4

  0
ENDTAB
  0
TABLE
  2
VIEW
 70
     0
  0
ENDTAB
  0
TABLE
  2
UCS
 70
     0
  0
ENDTAB
  0
TABLE
  2
APPID
 70
     1
  0
APPID
  2
ACAD
 70
    64
  0
ENDTAB
  0
TABLE
  2
DIMSTYLE
 70
     0
  0
ENDTAB
  0
ENDSEC
  0
SECTION
  2
BLOCKS
  0
ENDSEC
  0
SECTION
  2
ENTITIES
  0
LINE
  8
MESURA
 10
155.170634
 20
255.569126
 30
0.0
 11
155.170634
 21
255.169126
 31
0.0
  0
LINE
  8
0
 10
156.973306
 20
264.545552
 30
0.0
 11
156.973306
 21
249.695552
 31
0.0
  0
LINE
  8
MESURA
 10
154.666072
 20
255.569126
 30
0.0
 11
154.666072
 21
254.108303
 31
0.0
  0
LINE
  8
SECCIO
 10
149.14821
 20
257.043866
 30
0.0
 11
149.14821
 21
255.10779
 31
0.0
  0
LINE
  8
0
 10
146.473306
 20
264.545552
 30
0.0
 11
146.473306
 21
249.695552
 31
0.0
  0
LINE
  8
MESURA
 10
153.766072
 20
255.169126
 30
0.0
 11
155.289812
 21
255.169126
 31
0.0
  0
LINE
  8
0
 10
146.473306
 20
249.695552
 30
0.0
 11
156.973306
 21
249.695552
 31
0.0
  0
LINE
  8
SECCIO
 10
149.594246
 20
254.669126
 30
0.0
 11
154.778347
 21
254.669126
 31
0.0
  0
LINE
  8
MESURA
 10
149.107916
 20
255.134977
 30
0.0
 11
149.191306
 21
255.195587
 31
0.0
  0
LINE
  8
MESURA
 10
149.666072
 20
255.169126
 30
0.0
 11
148.657305
 21
255.169126
 31
0.0
  0
LINE
  8
MESURA
 10
149.619709
 20
254.634098
 30
0.0
 11
149.703099
 21
254.694707
 31
0.0
  0
LINE
  8
MESURA
 10
149.666072
 20
255.169126
 30
0.0
 11
149.666072
 21
254.108303
 31
0.0
  0
TEXT
  8
TEXTEP
 10
154.00222
 20
254.496729
 30
0.0
 40
0.1
  1
0.9
  0
LINE
  8
MESURA
 10
153.727656
 20
254.635682
 30
0.0
 11
153.811046
 21
254.696292
 31
0.0
  0
LINE
  8
MESURA
 10
153.766072
 20
255.169126
 30
0.0
 11
153.766072
 21
254.570879
 31
0.0
  0
TEXT
  8
TEXTEP
 10
151.592166
 20
254.496729
 30
0.0
 40
0.1
  1
4.1
  0
LINE
  8
MESURA
 10
155.170634
 20
255.169126
 30
0.0
 11
155.170634
 21
255.083531
 31
0.0
  0
TEXT
  8
TEXTEP
 10
155.260806
 20
255.344164
 30
0.0
 40
0.1
  1
0.4
  0
LINE
  8
MESURA
 10
155.130391
 20
255.141464
 30
0.0
 11
155.213781
 21
255.202074
 31
0.0
  0
LINE
  8
MESURA
 10
154.616248
 20
254.635682
 30
0.0
 11
154.699638
 21
254.696292
 31
0.0
  0
LINE
  8
0
 10
146.473306
 20
264.545552
 30
0.0
 11
156.973306
 21
264.545552
 31
0.0
  0
TEXT
  8
0
 10
148.423903
 20
260.647832
 30
0.0
 40
0.3
  1
P = 131.8 dm
  7
ROMANC
  0
TEXT
  8
TEXTEP
 10
149.824793
 20
257.271454
 30
0.0
 40
0.1
  1
0.5
  0
LINE
  8
MESURA
 10
150.14821
 20
256.969126
 30
0.0
 11
150.14821
 21
257.253438
 31
0.0
  0
LINE
  8
MESURA
 10
150.193493
 20
257.139974
 30
0.0
 11
150.110103
 21
257.200584
 31
0.0
  0
LINE
  8
SECCIO
 10
150.245526
 20
257.171307
 30
0.0
 11
149.571794
 21
257.171307
 31
0.0
  0
LINE
  8
MESURA
 10
149.64821
 20
256.669126
 30
0.0
 11
149.64821
 21
257.253438
 31
0.0
  0
LINE
  8
MESURA
 10
149.691752
 20
257.136431
 30
0.0
 11
149.608362
 21
257.19704
 31
0.0
  0
TEXT
  8
TEXTEP
 10
148.833993
 20
256.754074
 30
0.0
 40
0.1
  1
0.3
  0
LINE
  8
MESURA
 10
149.188964
 20
256.937368
 30
0.0
 11
149.105573
 21
256.997978
 31
0.0
  0
LINE
  8
MESURA
 10
149.190953
 20
256.638318
 30
0.0
 11
149.107563
 21
256.698928
 31
0.0
  0
LINE
  8
MESURA
 10
150.14821
 20
256.969126
 30
0.0
 11
148.657305
 21
256.969126
 31
0.0
  0
LINE
  8
MESURA
 10
149.64821
 20
256.669126
 30
0.0
 11
149.064593
 21
256.669126
 31
0.0
  0
TEXT
  8
TEXTEP
 10
148.869698
 20
255.893013
 30
0.0
 40
0.1
  1
1.5
  0
TEXT
  8
0
 10
148.426731
 20
261.32133
 30
0.0
 40
0.3
  1
S = 849 dm
  7
ROMANC
  0
TEXT
  8
0
 10
151.934562
 20
261.627247
 30
0.0
 40
0.1
  1
2
  7
ROMANC
  0
LINE
  8
MESURA
 10
154.666072
 20
255.569126
 30
0.0
 11
155.250045
 21
255.569126
 31
0.0
  0
LINE
  8
MESURA
 10
155.130391
 20
255.538115
 30
0.0
 11
155.213781
 21
255.598725
 31
0.0
  0
LINE
  8
MESURA
 10
155.170634
 20
255.674527
 30
0.0
 11
155.170634
 21
255.569126
 31
0.0
  0
LINE
  8
0
 10
149.666072
 20
254.108303
 30
0.0
 11
154.666072
 21
254.108303
 31
0.0
  0
LINE
  8
0
 10
148.657305
 20
256.97185
 30
0.0
 11
148.657305
 21
255.169126
 31
0.0
  0
LINE
  8
MESURA
 10
148.698058
 20
256.94223
 30
0.0
 11
148.614668
 21
257.00284
 31
0.0
  0
LINE
  8
MESURA
 10
148.61701
 20
255.139839
 30
0.0
 11
148.7004
 21
255.200449
 31
0.0
  0
LINE
  8
MESURA
 10
149.619709
 20
254.070505
 30
0.0
 11
149.703099
 21
254.131115
 31
0.0
  0
LINE
  8
MESURA
 10
154.616248
 20
254.07209
 30
0.0
 11
154.699638
 21
254.132699
 31
0.0
  0
TEXT
  8
TEXTEP
 10
151.814335
 20
253.854409
 30
0.0
 40
0.1
  1
5.0
  0
TEXT
  8
TEXTEP
 10
148.385687
 20
256.027821
 30
0.0
 40
0.1
  1
1.8
  0
LINE
  8
0
 10
154.686072
 20
255.549126
 30
0.0
 11
154.686072
 21
256.680129
 31
0.0
  0
LINE
  8
0
 10
154.686072
 20
256.680129
 30
0.0
 11
154.410972
 21
256.854469
 31
0.0
  0
LINE
  8
0
 10
154.410972
 20
256.854469
 30
0.0
 11
154.171306
 21
256.989126
 31
0.0
  0
LINE
  8
0
 10
154.171306
 20
256.989126
 30
0.0
 11
150.160533
 21
256.989126
 31
0.0
  0
LINE
  8
0
 10
150.160533
 20
256.989126
 30
0.0
 11
149.646072
 21
256.68045
 31
0.0
  0
LINE
  8
0
 10
149.646072
 20
256.68045
 30
0.0
 11
149.646072
 21
255.149126
 31
0.0
  0
LINE
  8
0
 10
149.646072
 20
255.149126
 30
0.0
 11
153.786072
 21
255.149126
 31
0.0
  0
LINE
  8
0
 10
153.786072
 20
255.149126
 30
0.0
 11
153.786072
 21
255.549126
 31
0.0
  0
LINE
  8
0
 10
153.786072
 20
255.549126
 30
0.0
 11
154.686072
 21
255.549126
 31
0.0
  0
LINE
  8
0
 10
154.676072
 20
255.559126
 30
0.0
 11
154.676072
 21
256.674627
 31
0.0
  0
LINE
  8
0
 10
154.676072
 20
256.674627
 30
0.0
 11
154.406074
 21
256.845751
 31
0.0
  0
LINE
  8
0
 10
154.406074
 20
256.845751
 30
0.0
 11
154.168689
 21
256.979126
 31
0.0
  0
LINE
  8
0
 10
154.168689
 20
256.979126
 30
0.0
 11
150.163303
 21
256.979126
 31
0.0
  0
LINE
  8
0
 10
150.163303
 20
256.979126
 30
0.0
 11
149.656072
 21
256.674788
 31
0.0
  0
LINE
  8
0
 10
149.656072
 20
256.674788
 30
0.0
 11
149.656072
 21
255.159126
 31
0.0
  0
LINE
  8
0
 10
149.656072
 20
255.159126
 30
0.0
 11
153.776072
 21
255.159126
 31
0.0
  0
LINE
  8
0
 10
153.776072
 20
255.159126
 30
0.0
 11
153.776072
 21
255.559126
 31
0.0
  0
LINE
  8
0
 10
153.776072
 20
255.559126
 30
0.0
 11
154.676072
 21
255.559126
 31
0.0
  0
LINE
  8
0
 10
154.666072
 20
255.561037
 30
0.0
 11
154.666072
 21
256.669126
 31
0.0
  0
LINE
  8
0
 10
154.666072
 20
256.669126
 30
0.0
 11
154.401175
 21
256.837033
 31
0.0
  0
LINE
  8
0
 10
154.401175
 20
256.837033
 30
0.0
 11
154.166072
 21
256.969126
 31
0.0
  0
LINE
  8
0
 10
154.166072
 20
256.969126
 30
0.0
 11
150.166072
 21
256.969126
 31
0.0
  0
LINE
  8
0
 10
150.166072
 20
256.969126
 30
0.0
 11
149.666072
 21
256.669126
 31
0.0
  0
LINE
  8
0
 10
149.666072
 20
256.669126
 30
0.0
 11
149.666072
 21
255.169126
 31
0.0
  0
LINE
  8
0
 10
149.666072
 20
255.169126
 30
0.0
 11
153.766072
 21
255.169126
 31
0.0
  0
LINE
  8
0
 10
153.766072
 20
255.169126
 30
0.0
 11
153.766072
 21
255.569126
 31
0.0
  0
LINE
  8
0
 10
153.766072
 20
255.569126
 30
0.0
 11
154.666072
 21
255.569126
 31
0.0
  0
LINE
  8
0
 10
154.666072
 20
255.569126
 30
0.0
 11
154.666072
 21
255.561037
 31
0.0
  0
LINE
  8
0
 10
154.656072
 20
255.561037
 30
0.0
 11
154.656072
 21
255.579126
 31
0.0
  0
LINE
  8
0
 10
154.656072
 20
255.579126
 30
0.0
 11
154.676072
 21
255.579126
 31
0.0
  0
LINE
  8
0
 10
154.676072
 20
255.579126
 30
0.0
 11
154.676072
 21
255.561037
 31
0.0
  0
LINE
  8
0
 10
154.656072
 20
255.561037
 30
0.0
 11
154.656072
 21
255.579126
 31
0.0
  0
LINE
  8
0
 10
154.656072
 20
255.579126
 30
0.0
 11
154.676072
 21
255.579126
 31
0.0
  0
LINE
  8
0
 10
154.676072
 20
255.579126
 30
0.0
 11
154.676072
 21
255.561037
 31
0.0
  0
LINE
  8
0
 10
154.656072
 20
255.561037
 30
0.0
 11
154.656072
 21
255.579126
 31
0.0
  0
LINE
  8
0
 10
154.656072
 20
255.579126
 30
0.0
 11
154.676072
 21
255.579126
 31
0.0
  0
LINE
  8
0
 10
154.676072
 20
255.579126
 30
0.0
 11
154.676072
 21
255.561037
 31
0.0
  0
TEXT
  8
0
 10
148.423903
 20
262.100357
 30
0.0
 40
0.3
  1
ESCALA     1:50
  7
ROMANC
  0
TEXT
  8
0
 10
148.426731
 20
262.773855
 30
0.0
 40
0.3
  1
TIPUS     T849
  7
ROMANC
  0
ENDSEC
  0
EOF
