  0
SECTION
  2
HEADER
  9
$ACADVER
  1
AC1009
  9
$INSBASE
 10
0.0
 20
0.0
 30
0.0
  9
$EXTMIN
 10
281.396
 20
29.897
 30
0.0
  9
$EXTMAX
 10
291.896
 20
44.747
 30
0.0
  9
$LIMMIN
 10
0.0
 20
0.0
  9
$LIMMAX
 10
12.0
 20
9.0
  9
$ORTHOMODE
 70
     0
  9
$REGENMODE
 70
     1
  9
$FILLMODE
 70
     1
  9
$QTEXTMODE
 70
     0
  9
$MIRRTEXT
 70
     1
  9
$DRAGMODE
 70
     2
  9
$LTSCALE
 40
1.0
  9
$OSMODE
 70
     0
  9
$ATTMODE
 70
     1
  9
$TEXTSIZE
 40
0.2
  9
$TRACEWID
 40
0.05
  9
$TEXTSTYLE
  7
STANDARD
  9
$CLAYER
  8
0
  9
$CELTYPE
  6
CONTINUOUS
  9
$CECOLOR
 62
   256
  9
$DIMSCALE
 40
1.0
  9
$DIMASZ
 40
0.18
  9
$DIMEXO
 40
0.0625
  9
$DIMDLI
 40
0.38
  9
$DIMRND
 40
0.0
  9
$DIMDLE
 40
0.0
  9
$DIMEXE
 40
0.18
  9
$DIMTP
 40
0.0
  9
$DIMTM
 40
0.0
  9
$DIMTXT
 40
0.18
  9
$DIMCEN
 40
0.09
  9
$DIMTSZ
 40
0.0
  9
$DIMTOL
 70
     0
  9
$DIMLIM
 70
     0
  9
$DIMTIH
 70
     1
  9
$DIMTOH
 70
     1
  9
$DIMSE1
 70
     0
  9
$DIMSE2
 70
     0
  9
$DIMTAD
 70
     0
  9
$DIMZIN
 70
     0
  9
$DIMBLK
  1

  9
$DIMASO
 70
     1
  9
$DIMSHO
 70
     1
  9
$DIMPOST
  1

  9
$DIMAPOST
  1

  9
$DIMALT
 70
     0
  9
$DIMALTD
 70
     2
  9
$DIMALTF
 40
25.4
  9
$DIMLFAC
 40
1.0
  9
$DIMTOFL
 70
     0
  9
$DIMTVP
 40
0.0
  9
$DIMTIX
 70
     0
  9
$DIMSOXD
 70
     0
  9
$DIMSAH
 70
     0
  9
$DIMBLK1
  1

  9
$DIMBLK2
  1

  9
$DIMSTYLE
  2
STANDARD
  9
$DIMCLRD
 70
     0
  9
$DIMCLRE
 70
     0
  9
$DIMCLRT
 70
     0
  9
$DIMTFAC
 40
1.0
  9
$DIMGAP
 40
0.09
  9
$LUNITS
 70
     2
  9
$LUPREC
 70
     4
  9
$AXISMODE
 70
     0
  9
$AXISUNIT
 10
0.0
 20
0.0
  9
$SKETCHINC
 40
0.1
  9
$FILLETRAD
 40
0.0
  9
$AUNITS
 70
     0
  9
$AUPREC
 70
     0
  9
$MENU
  1
acad
  9
$ELEVATION
 40
0.0
  9
$PELEVATION
 40
0.0
  9
$THICKNESS
 40
0.0
  9
$LIMCHECK
 70
     0
  9
$BLIPMODE
 70
     1
  9
$CHAMFERA
 40
0.0
  9
$CHAMFERB
 40
0.0
  9
$SKPOLY
 70
     0
  9
$TDCREATE
 40
2452342.404664352
  9
$TDUPDATE
 40
2452342.404664352
  9
$TDINDWG
 40
0.0000000000
  9
$TDUSRTIMER
 40
0.0000000000
  9
$USRTIMER
 70
     1
  9
$ANGBASE
 50
0.0
  9
$ANGDIR
 70
     0
  9
$PDMODE
 70
     0
  9
$PDSIZE
 40
0.0
  9
$PLINEWID
 40
0.0
  9
$COORDS
 70
     0
  9
$SPLFRAME
 70
     0
  9
$SPLINETYPE
 70
     6
  9
$SPLINESEGS
 70
    10
  9
$ATTDIA
 70
     0
  9
$ATTREQ
 70
     1
  9
$HANDLING
 70
     1
  9
$HANDSEED
  5
74
  9
$SURFTAB1
 70
     6
  9
$SURFTAB2
 70
     6
  9
$SURFTYPE
 70
     6
  9
$SURFU
 70
     6
  9
$SURFV
 70
     6
  9
$UCSNAME
  2

  9
$UCSORG
 10
0.0
 20
0.0
 30
0.0
  9
$UCSXDIR
 10
1.0
 20
0.0
 30
0.0
  9
$UCSYDIR
 10
0.0
 20
1.0
 30
0.0
  9
$PUCSNAME
  2

  9
$PUCSORG
 10
0.0
 20
0.0
 30
0.0
  9
$PUCSXDIR
 10
1.0
 20
0.0
 30
0.0
  9
$PUCSYDIR
 10
0.0
 20
1.0
 30
0.0
  9
$USERI1
 70
     0
  9
$USERI2
 70
     0
  9
$USERI3
 70
     0
  9
$USERI4
 70
     0
  9
$USERI5
 70
     0
  9
$USERR1
 40
0.0
  9
$USERR2
 40
0.0
  9
$USERR3
 40
0.0
  9
$USERR4
 40
0.0
  9
$USERR5
 40
0.0
  9
$WORLDVIEW
 70
     1
  9
$SHADEDGE
 70
     3
  9
$SHADEDIF
 70
    70
  9
$TILEMODE
 70
     1
  9
$MAXACTVP
 70
    16
  9
$PINSBASE
 10
0.0
 20
0.0
 30
0.0
  9
$PLIMCHECK
 70
     0
  9
$PEXTMIN
 10
-1.000000E+20
 20
-1.000000E+20
 30
-1.000000E+20
  9
$PEXTMAX
 10
-1.000000E+20
 20
-1.000000E+20
 30
-1.000000E+20
  9
$PLIMMIN
 10
0.0
 20
0.0
  9
$PLIMMAX
 10
12.0
 20
9.0
  9
$UNITMODE
 70
     0
  9
$VISRETAIN
 70
     0
  9
$PLINEGEN
 70
     1
  9
$PSLTSCALE
 70
     0
  9
$TREEDEPTH
 70
  3020
  9
$DWGCODEPAGE
  3
ansi_1252
  0
ENDSEC
  0
SECTION
  2
TABLES
  0
TABLE
  2
VPORT
 70
     1
  0
VPORT
  2
*ACTIVE
 70
     0
 10
0.0
 20
0.0
 11
1.0
 21
1.0
 12
0.0
 22
0.0
 13
0.0
 23
0.0
 14
0.0
 24
0.0
 15
0.0
 25
0.0
 16
0.0
 26
0.0
 36
1.0
 17
285.530482
 27
37.324
 37
0.0
 40
15.226
 41
1.381385
 42
50.0
 43
0.0
 44
0.0
 50
0.0
 51
0.0
 71
     0
 72
   100
 73
     1
 74
     0
 75
     0
 76
     0
 77
     0
 78
     0
  0
ENDTAB
  0
TABLE
  2
LTYPE
 70
     7
  0
LTYPE
  2
CONTINUOUS
 70
     0
  3
Solid line
 72
    65
 73
     0
 40
0.0
  0
LTYPE
  2
DOT
 70
    64
  3
. . . . . . . . . . . . . . . . . . . . . . . . . . . . . . . . .
 72
    65
 73
     2
 40
0.25
 49
0.0
 49
-0.25
  0
LTYPE
  2
HIDDEN
 70
    64
  3
__ __ __ __ __ __ __ __ __ __ __ __ __ __ __ __ __ __ __ __ __ 
 72
    65
 73
     2
 40
0.375
 49
0.25
 49
-0.125
  0
LTYPE
  2
DASHED
 70
    64
  3
__ __ __ __ __ __ __ __ __ __ __ __ __ __ __ __ __ __ __ __ __
 72
    65
 73
     2
 40
0.75
 49
0.5
 49
-0.25
  0
LTYPE
  2
DASHDOT
 70
    64
  3
__ . __ . __ . __ . __ . __ . __ . __ . __ . __ . __ . __ . _
 72
    65
 73
     4
 40
1.0
 49
0.5
 49
-0.25
 49
0.0
 49
-0.25
  0
LTYPE
  2
DIVIDE
 70
    64
  3
____ . . ____ . . ____ . . ____ . . ____ . . ____ . . ____ . .
 72
    65
 73
     6
 40
1.25
 49
0.5
 49
-0.25
 49
0.0
 49
-0.25
 49
0.0
 49
-0.25
  0
LTYPE
  2
CENTER
 70
    64
  3
____ _ ____ _ ____ _ ____ _ ____ _ ____ _ ____ _ ____ _ ____ _
 72
    65
 73
     4
 40
2.0
 49
1.25
 49
-0.25
 49
0.25
 49
-0.25
  0
ENDTAB
  0
TABLE
  2
LAYER
 70
     4
  0
LAYER
  2
0
 70
    64
 62
     7
  6
CONTINUOUS
  0
LAYER
  2
CONSTRUCTION_CLASS
 70
     0
 62
     7
  6
CONTINUOUS
  0
LAYER
  2
PATTERN_CLASS
 70
     0
 62
     7
  6
CONTINUOUS
  0
LAYER
  2
2
 70
    64
 62
     7
  6
CONTINUOUS
  0
ENDTAB
  0
TABLE
  2
STYLE
 70
     2
  0
STYLE
  2
STANDARD
 70
     0
 40
0.0
 41
1.0
 50
0.0
 71
     0
 42
0.0
  3
txt
  4

  0
STYLE
  2
ROMANC
 70
     0
 40
0.2
 41
1.0
 50
0.0
 71
     0
 42
0.2
  3
ROMANC
  4

  0
ENDTAB
  0
TABLE
  2
VIEW
 70
     0
  0
ENDTAB
  0
TABLE
  2
UCS
 70
     0
  0
ENDTAB
  0
TABLE
  2
APPID
 70
     1
  0
APPID
  2
ACAD
 70
     0
  0
ENDTAB
  0
TABLE
  2
DIMSTYLE
 70
     1
  0
DIMSTYLE
  2
STANDARD
 70
     0
  3

  4

  5

  6

  7

 40
1.0
 41
0.18
 42
0.0625
 43
0.38
 44
0.18
 45
0.0
 46
0.0
 47
0.0
 48
0.0
140
0.18
141
0.09
142
0.0
143
25.4
144
1.0
145
0.0
146
1.0
147
0.09
 71
     0
 72
     0
 73
     1
 74
     1
 75
     0
 76
     0
 77
     0
 78
     0
170
     0
171
     2
172
     0
173
     0
174
     0
175
     0
176
     0
177
     0
178
     0
  0
ENDTAB
  0
ENDSEC
  0
SECTION
  2
BLOCKS
  0
ENDSEC
  0
SECTION
  2
ENTITIES
  0
TEXT
  8
0
  6
CONTINUOUS
 62
     7
  5
29
 10
286.909
 20
41.324
 30
0.0
 40
0.1
  1
2
  7
ROMANC
210
0.0
220
0.0
230
1.0
  0
TEXT
  8
0
  6
CONTINUOUS
 62
     7
  5
2A
 10
283.926
 20
41.768
 30
0.0
 40
0.3
  1
ESCALA  1:50
  7
ROMANC
210
0.0
220
0.0
230
1.0
  0
POLYLINE
  8
0
  6
CONTINUOUS
 62
     7
  5
2B
 66
     1
 10
0.0
 20
0.0
 30
0.0
 70
     1
  0
VERTEX
  8
0
  6
CONTINUOUS
 62
     7
  5
2C
 10
281.396
 20
44.747
 30
0.0
  0
VERTEX
  8
0
  6
CONTINUOUS
 62
     7
  5
2D
 10
291.896
 20
44.747
 30
0.0
  0
VERTEX
  8
0
  6
CONTINUOUS
 62
     7
  5
2E
 10
291.896
 20
29.897
 30
0.0
  0
VERTEX
  8
0
  6
CONTINUOUS
 62
     7
  5
2F
 10
281.396
 20
29.897
 30
0.0
  0
SEQEND
  8
0
  6
CONTINUOUS
 62
     7
  5
30
  0
TEXT
  8
0
  6
CONTINUOUS
 62
     7
  5
31
 10
283.926
 20
42.381
 30
0.0
 40
0.3
  1
TIPUS   T828
  7
ROMANC
210
0.0
220
0.0
230
1.0
  0
TEXT
  8
0
  6
CONTINUOUS
 62
     7
  5
32
 10
283.922
 20
40.529
 30
0.0
 40
0.3
  1
P = 124 dm
  7
ROMANC
210
0.0
220
0.0
230
1.0
  0
TEXT
  8
0
  6
CONTINUOUS
 62
     7
  5
33
 10
283.945
 20
41.099
 30
0.0
 40
0.3
  1
S = 831 dm
  7
ROMANC
210
0.0
220
0.0
230
1.0
  0
TEXT
  8
2
  6
CONTINUOUS
 62
     7
  5
35
 10
286.669
 20
32.214
 30
0.0
 40
0.075
  1
5.20
  7
ROMANC
210
0.0
220
0.0
230
1.0
  0
LINE
  8
2
  6
CONTINUOUS
 62
     7
  5
36
 10
286.631
 20
32.251
 30
0.0
 11
284.188
 21
32.251
 31
0.0
  0
LINE
  8
2
  6
CONTINUOUS
 62
     7
  5
37
 10
286.943
 20
32.251
 30
0.0
 11
289.388
 21
32.251
 31
0.0
  0
LINE
  8
2
  6
CONTINUOUS
 62
     7
  5
38
 10
284.15
 20
32.232
 30
0.0
 11
284.226
 21
32.27
 31
0.0
  0
LINE
  8
2
  6
CONTINUOUS
 62
     7
  5
39
 10
289.426
 20
32.27
 30
0.0
 11
289.35
 21
32.232
 31
0.0
  0
LINE
  8
2
  6
CONTINUOUS
 62
     7
  5
3A
 10
284.188
 20
32.553
 30
0.0
 11
284.188
 21
32.213
 31
0.0
  0
LINE
  8
2
  6
CONTINUOUS
 62
     7
  5
3B
 10
289.388
 20
32.553
 30
0.0
 11
289.388
 21
32.213
 31
0.0
  0
ARC
  8
2
  6
CONTINUOUS
 62
     7
  5
3C
 10
286.784795
 20
31.927551
 30
0.0
 40
2.813451
 50
22.451253
 51
157.261992
210
0.0
220
0.0
230
1.0
  0
ARC
  8
2
  6
CONTINUOUS
 62
     7
  5
3D
 10
284.423671
 20
32.983122
 30
0.0
 40
0.235836
 50
172.231597
 51
261.30035
210
0.0
220
0.0
230
1.0
  0
ARC
  8
2
  6
CONTINUOUS
 62
     7
  5
3E
 10
286.788
 20
32.591
 30
0.0
 40
0.2
 50
180.0
 51
360.0
210
0.0
220
0.0
230
1.0
  0
LINE
  8
2
  6
CONTINUOUS
 62
     7
  5
3F
 10
286.988
 20
32.591
 30
0.0
 11
289.187
 21
32.737
 31
0.0
  0
ARC
  8
2
  6
CONTINUOUS
 62
     7
  5
40
 10
289.151329
 20
32.970122
 30
0.0
 40
0.235836
 50
278.69965
 51
7.768403
210
0.0
220
0.0
230
1.0
  0
TEXT
  8
2
  6
CONTINUOUS
 62
     7
  5
41
 10
289.848
 20
33.62
 30
0.0
 40
0.075
  1
2.00
 50
90.0
  7
ROMANC
210
0.0
220
0.0
230
1.0
  0
LINE
  8
2
  6
CONTINUOUS
 62
     7
  5
42
 10
289.81
 20
33.582
 30
0.0
 11
289.81
 21
32.737
 31
0.0
  0
LINE
  8
2
  6
CONTINUOUS
 62
     7
  5
43
 10
289.81
 20
33.894
 30
0.0
 11
289.81
 21
34.741
 31
0.0
  0
LINE
  8
2
  6
CONTINUOUS
 62
     7
  5
44
 10
289.829
 20
32.7
 30
0.0
 11
289.791
 21
32.774
 31
0.0
  0
LINE
  8
2
  6
CONTINUOUS
 62
     7
  5
45
 10
289.791
 20
34.778
 30
0.0
 11
289.829
 21
34.704
 31
0.0
  0
LINE
  8
2
  6
CONTINUOUS
 62
     7
  5
46
 10
289.225
 20
32.737
 30
0.0
 11
289.848
 21
32.737
 31
0.0
  0
LINE
  8
2
  6
CONTINUOUS
 62
     7
  5
47
 10
286.826
 20
34.741
 30
0.0
 11
289.848
 21
34.741
 31
0.0
  0
TEXT
  8
2
  6
CONTINUOUS
 62
     7
  5
48
 10
290.084
 20
33.447
 30
0.0
 40
0.075
  1
2.35
 50
90.0
  7
ROMANC
210
0.0
220
0.0
230
1.0
  0
LINE
  8
2
  6
CONTINUOUS
 62
     7
  5
49
 10
290.046
 20
33.409
 30
0.0
 11
290.046
 21
32.391
 31
0.0
  0
LINE
  8
2
  6
CONTINUOUS
 62
     7
  5
4A
 10
290.046
 20
33.721
 30
0.0
 11
290.046
 21
34.741
 31
0.0
  0
LINE
  8
2
  6
CONTINUOUS
 62
     7
  5
4B
 10
290.065
 20
32.354
 30
0.0
 11
290.027
 21
32.428
 31
0.0
  0
LINE
  8
2
  6
CONTINUOUS
 62
     7
  5
4C
 10
290.027
 20
34.778
 30
0.0
 11
290.065
 21
34.704
 31
0.0
  0
LINE
  8
2
  6
CONTINUOUS
 62
     7
  5
4D
 10
286.826
 20
32.391
 30
0.0
 11
290.084
 21
32.391
 31
0.0
  0
LINE
  8
2
  6
CONTINUOUS
 62
     7
  5
4E
 10
286.826
 20
34.741
 30
0.0
 11
290.084
 21
34.741
 31
0.0
  0
TEXT
  8
2
  6
CONTINUOUS
 62
     7
  5
4F
 10
289.538
 20
32.956
 30
0.0
 40
0.075
  1
0.20
 50
90.0
  7
ROMANC
210
0.0
220
0.0
230
1.0
  0
LINE
  8
2
  6
CONTINUOUS
 62
     7
  5
50
 10
289.501
 20
32.241
 30
0.0
 11
289.501
 21
32.391
 31
0.0
  0
LINE
  8
2
  6
CONTINUOUS
 62
     7
  5
51
 10
289.501
 20
32.918
 30
0.0
 11
289.501
 21
32.591
 31
0.0
  0
LINE
  8
2
  6
CONTINUOUS
 62
     7
  5
52
 10
289.482
 20
32.428
 30
0.0
 11
289.52
 21
32.354
 31
0.0
  0
LINE
  8
2
  6
CONTINUOUS
 62
     7
  5
53
 10
289.52
 20
32.554
 30
0.0
 11
289.482
 21
32.628
 31
0.0
  0
LINE
  8
2
  6
CONTINUOUS
 62
     7
  5
54
 10
286.826
 20
32.391
 30
0.0
 11
289.539
 21
32.391
 31
0.0
  0
LINE
  8
2
  6
CONTINUOUS
 62
     7
  5
55
 10
288.624
 20
32.591
 30
0.0
 11
289.539
 21
32.591
 31
0.0
  0
TEXT
  8
2
  6
CONTINUOUS
 62
     7
  5
56
 10
289.704
 20
33.344
 30
0.0
 40
0.075
  1
0.15
 50
90.0
  7
ROMANC
210
0.0
220
0.0
230
1.0
  0
LINE
  8
2
  6
CONTINUOUS
 62
     7
  5
57
 10
289.667
 20
32.441
 30
0.0
 11
289.667
 21
32.591
 31
0.0
  0
LINE
  8
2
  6
CONTINUOUS
 62
     7
  5
58
 10
289.667
 20
33.306
 30
0.0
 11
289.667
 21
32.737
 31
0.0
  0
LINE
  8
2
  6
CONTINUOUS
 62
     7
  5
59
 10
289.648
 20
32.628
 30
0.0
 11
289.686
 21
32.554
 31
0.0
  0
LINE
  8
2
  6
CONTINUOUS
 62
     7
  5
5A
 10
289.686
 20
32.7
 30
0.0
 11
289.648
 21
32.774
 31
0.0
  0
LINE
  8
2
  6
CONTINUOUS
 62
     7
  5
5B
 10
288.462
 20
32.591
 30
0.0
 11
289.705
 21
32.591
 31
0.0
  0
LINE
  8
2
  6
CONTINUOUS
 62
     7
  5
5C
 10
289.225
 20
32.737
 30
0.0
 11
289.705
 21
32.737
 31
0.0
  0
ARC
  8
2
  6
CONTINUOUS
 62
     7
  5
5D
 10
286.784795
 20
31.927551
 30
0.0
 40
2.823451
 50
22.451253
 51
157.261992
210
0.0
220
0.0
230
1.0
  0
ARC
  8
2
  6
CONTINUOUS
 62
     7
  5
5E
 10
286.784795
 20
31.927551
 30
0.0
 40
2.833451
 50
22.451253
 51
157.261992
210
0.0
220
0.0
230
1.0
  0
ARC
  8
2
  6
CONTINUOUS
 62
     7
  5
5F
 10
289.151329
 20
32.970122
 30
0.0
 40
0.245836
 50
278.69965
 51
7.768403
210
0.0
220
0.0
230
1.0
  0
ARC
  8
2
  6
CONTINUOUS
 62
     7
  5
60
 10
289.151329
 20
32.970122
 30
0.0
 40
0.255836
 50
278.69965
 51
7.768403
210
0.0
220
0.0
230
1.0
  0
LINE
  8
2
  6
CONTINUOUS
 62
     7
  5
61
 10
286.998
 20
32.582
 30
0.0
 11
289.187
 21
32.727
 31
0.0
  0
LINE
  8
2
  6
CONTINUOUS
 62
     7
  5
62
 10
287.007
 20
32.572
 30
0.0
 11
289.188
 21
32.717
 31
0.0
  0
ARC
  8
2
  6
CONTINUOUS
 62
     7
  5
63
 10
286.788
 20
32.591
 30
0.0
 40
0.21
 50
182.555869
 51
357.448161
210
0.0
220
0.0
230
1.0
  0
ARC
  8
2
  6
CONTINUOUS
 62
     7
  5
64
 10
286.788
 20
32.591
 30
0.0
 40
0.22
 50
184.890919
 51
355.099953
210
0.0
220
0.0
230
1.0
  0
LINE
  8
2
  6
CONTINUOUS
 62
     7
  5
65
 10
284.387
 20
32.74
 30
0.0
 11
286.578
 21
32.582
 31
0.0
  0
LINE
  8
2
  6
CONTINUOUS
 62
     7
  5
66
 10
284.386
 20
32.73
 30
0.0
 11
286.569
 21
32.572
 31
0.0
  0
ARC
  8
2
  6
CONTINUOUS
 62
     7
  5
67
 10
284.423671
 20
32.983122
 30
0.0
 40
0.245836
 50
172.231597
 51
261.30035
210
0.0
220
0.0
230
1.0
  0
ARC
  8
2
  6
CONTINUOUS
 62
     7
  5
68
 10
284.423671
 20
32.983122
 30
0.0
 40
0.255836
 50
172.231597
 51
261.30035
210
0.0
220
0.0
230
1.0
  0
LINE
  8
2
  6
CONTINUOUS
 62
     7
  5
69
 10
284.388
 20
32.75
 30
0.0
 11
286.588
 21
32.591
 31
0.0
  0
TEXT
  8
2
  6
CONTINUOUS
 62
     7
  5
6A
 10
286.666
 20
32.72
 30
0.0
 40
0.075
  1
0.40
  7
ROMANC
210
0.0
220
0.0
230
1.0
  0
LINE
  8
2
  6
CONTINUOUS
 62
     7
  5
6B
 10
286.438
 20
32.757
 30
0.0
 11
286.588
 21
32.757
 31
0.0
  0
LINE
  8
2
  6
CONTINUOUS
 62
     7
  5
6C
 10
287.138
 20
32.757
 30
0.0
 11
286.988
 21
32.757
 31
0.0
  0
LINE
  8
2
  6
CONTINUOUS
 62
     7
  5
6D
 10
286.626
 20
32.776
 30
0.0
 11
286.55
 21
32.738
 31
0.0
  0
LINE
  8
2
  6
CONTINUOUS
 62
     7
  5
6E
 10
286.95
 20
32.738
 30
0.0
 11
287.026
 21
32.776
 31
0.0
  0
LINE
  8
2
  6
CONTINUOUS
 62
     7
  5
6F
 10
286.588
 20
32.629
 30
0.0
 11
286.588
 21
32.795
 31
0.0
  0
LINE
  8
2
  6
CONTINUOUS
 62
     7
  5
70
 10
286.988
 20
32.629
 30
0.0
 11
286.988
 21
32.795
 31
0.0
  0
ENDSEC
  0
EOF
