  0
SECTION
  2
HEADER
  9
$ACADVER
  1
AC1009
  9
$INSBASE
 10
0.0
 20
0.0
 30
0.0
  9
$EXTMIN
 10
281.396000
 20
29.897000
 30
-2147483.648000
  9
$EXTMAX
 10
291.896000
 20
44.747000
 30
0.000000
  9
$LIMMIN
 10
280.396000
 20
28.897000
  9
$LIMMAX
 10
292.896000
 20
43.747000
  9
$ORTHOMODE
 70
     0
  9
$REGENMODE
 70
     1
  9
$FILLMODE
 70
     1
  9
$QTEXTMODE
 70
     0
  9
$MIRRTEXT
 70
     1
  9
$DRAGMODE
 70
     2
  9
$LTSCALE
 40
1.0
  9
$OSMODE
 70
     0
  9
$ATTMODE
 70
     1
  9
$TEXTSIZE
 40
0.2
  9
$TRACEWID
 40
0.05
  9
$TEXTSTYLE
  7
STANDARD
  9
$CLAYER
  8
0
  9
$CELTYPE
  6
BYLAYER
  9
$CECOLOR
 62
   256
  9
$DIMSCALE
 40
1.0
  9
$DIMASZ
 40
0.18
  9
$DIMEXO
 40
0.0625
  9
$DIMDLI
 40
0.38
  9
$DIMRND
 40
0.0
  9
$DIMDLE
 40
0.0
  9
$DIMEXE
 40
0.18
  9
$DIMTP
 40
0.0
  9
$DIMTM
 40
0.0
  9
$DIMTXT
 40
0.18
  9
$DIMCEN
 40
0.09
  9
$DIMTSZ
 40
0.0
  9
$DIMTOL
 70
     0
  9
$DIMLIM
 70
     0
  9
$DIMTIH
 70
     1
  9
$DIMTOH
 70
     1
  9
$DIMSE1
 70
     0
  9
$DIMSE2
 70
     0
  9
$DIMTAD
 70
     0
  9
$DIMZIN
 70
     0
  9
$DIMBLK
  1

  9
$DIMASO
 70
     1
  9
$DIMSHO
 70
     1
  9
$DIMPOST
  1

  9
$DIMAPOST
  1

  9
$DIMALT
 70
     0
  9
$DIMALTD
 70
     2
  9
$DIMALTF
 40
25.4
  9
$DIMLFAC
 40
1.0
  9
$DIMTOFL
 70
     0
  9
$DIMTVP
 40
0.0
  9
$DIMTIX
 70
     0
  9
$DIMSOXD
 70
     0
  9
$DIMSAH
 70
     0
  9
$DIMBLK1
  1

  9
$DIMBLK2
  1

  9
$DIMSTYLE
  2
*UNNAMED
  9
$DIMCLRD
 70
     0
  9
$DIMCLRE
 70
     0
  9
$DIMCLRT
 70
     0
  9
$DIMTFAC
 40
1.0
  9
$DIMGAP
 40
0.09
  9
$LUNITS
 70
     2
  9
$LUPREC
 70
     4
  9
$AXISMODE
 70
     0
  9
$AXISUNIT
 10
0.0
 20
0.0
  9
$SKETCHINC
 40
0.1
  9
$FILLETRAD
 40
0.0
  9
$AUNITS
 70
     0
  9
$AUPREC
 70
     0
  9
$MENU
  1
acad
  9
$ELEVATION
 40
0.0
  9
$PELEVATION
 40
0.0
  9
$THICKNESS
 40
0.0
  9
$LIMCHECK
 70
     0
  9
$BLIPMODE
 70
     1
  9
$CHAMFERA
 40
0.0
  9
$CHAMFERB
 40
0.0
  9
$SKPOLY
 70
     0
  9
$TDCREATE
 40
2448315.373408102
  9
$TDUPDATE
 40
2448315.373408102
  9
$TDINDWG
 40
0.0000000000
  9
$TDUSRTIMER
 40
0.0000000000
  9
$USRTIMER
 70
     1
  9
$ANGBASE
 50
0.0
  9
$ANGDIR
 70
     0
  9
$PDMODE
 70
     0
  9
$PDSIZE
 40
0.0
  9
$PLINEWID
 40
0.0
  9
$COORDS
 70
     0
  9
$SPLFRAME
 70
     0
  9
$SPLINETYPE
 70
     6
  9
$SPLINESEGS
 70
     8
  9
$ATTDIA
 70
     0
  9
$ATTREQ
 70
     1
  9
$HANDLING
 70
     0
  9
$HANDSEED
  5
0
  9
$SURFTAB1
 70
     6
  9
$SURFTAB2
 70
     6
  9
$SURFTYPE
 70
     6
  9
$SURFU
 70
     6
  9
$SURFV
 70
     6
  9
$UCSNAME
  2

  9
$UCSORG
 10
0.0
 20
0.0
 30
0.0
  9
$UCSXDIR
 10
1.0
 20
0.0
 30
0.0
  9
$UCSYDIR
 10
0.0
 20
1.0
 30
0.0
  9
$PUCSNAME
  2

  9
$PUCSORG
 10
0.0
 20
0.0
 30
0.0
  9
$PUCSXDIR
 10
1.0
 20
0.0
 30
0.0
  9
$PUCSYDIR
 10
0.0
 20
1.0
 30
0.0
  9
$USERI1
 70
     0
  9
$USERI2
 70
     0
  9
$USERI3
 70
     0
  9
$USERI4
 70
     0
  9
$USERI5
 70
     0
  9
$USERR1
 40
0.0
  9
$USERR2
 40
0.0
  9
$USERR3
 40
0.0
  9
$USERR4
 40
0.0
  9
$USERR5
 40
0.0
  9
$WORLDVIEW
 70
     1
  9
$SHADEDGE
 70
     3
  9
$SHADEDIF
 70
    70
  9
$TILEMODE
 70
     1
  9
$MAXACTVP
 70
    16
  9
$PINSBASE
 10
0.0
 20
0.0
 30
0.0
  9
$PLIMCHECK
 70
     0
  9
$PEXTMIN
 10
1.000000E+20
 20
1.000000E+20
 30
1.000000E+20
  9
$PEXTMAX
 10
-1.000000E+20
 20
-1.000000E+20
 30
-1.000000E+20
  9
$PLIMMIN
 10
0.0
 20
0.0
  9
$PLIMMAX
 10
12.0
 20
9.0
  9
$UNITMODE
 70
     0
  9
$VISRETAIN
 70
     0
  0
ENDSEC
  0
SECTION
  2
TABLES
  0
TABLE
  2
LTYPE
 70
    1
  0
LTYPE
  2
CONTINUOUS
 70
    64
3
Solid line
 72
    65
 73
0
 40
0.000000
  0
ENDTAB
  0
TABLE
  2
LAYER
 70
    8
  0
LAYER
  2
0
 70
    64
 62
7
  6
CONTINUOUS
  0
LAYER
  2
1
 70
    64
 62
7
  6
CONTINUOUS
  0
LAYER
  2
7
 70
    64
 62
7
  6
CONTINUOUS
  0
LAYER
  2
8
 70
    64
 62
7
  6
CONTINUOUS
  0
LAYER
  2
9
 70
    64
 62
7
  6
CONTINUOUS
  0
LAYER
  2
22
 70
    64
 62
7
  6
CONTINUOUS
  0
LAYER
  2
25
 70
    64
 62
7
  6
CONTINUOUS
  0
LAYER
  2
0
 70
    64
 62
7
  6
CONTINUOUS
  0
ENDTAB
  0
TABLE
  2
STYLE
 70
    1
  0
STYLE
  2
ROMANC
70
     0
 40
0.0
 41
1.0
 50
0.0
 71
     0
 42
0.2
  3
ROMANC
  4

  0
ENDTAB
  0
ENDSEC
  0
SECTION
  2
BLOCKS
  0
ENDSEC
  0
SECTION
  2
ENTITIES
  0
TEXT
  8
0
  6
CONTINUOUS
 40
0.100000
 10
286.909000
 20
41.324000
  1
2
  7
ROMANC
  0
TEXT
  8
0
  6
CONTINUOUS
 40
0.300000
 10
283.926000
 20
41.768000
  1
ESCALA  1:50
  7
ROMANC
  0
POLYLINE
  8
0
  6
CONTINUOUS
 66
     1
 70
     1
  0
VERTEX
  8
0
  6
CONTINUOUS
 10
281.396000
 20
44.747000
  0
VERTEX
  8
0
  6
CONTINUOUS
 10
291.896000
 20
44.747000
  0
VERTEX
  8
0
  6
CONTINUOUS
 10
291.896000
 20
29.897000
  0
VERTEX
  8
0
  6
CONTINUOUS
 10
281.396000
 20
29.897000
  0
SEQEND
  8
0
  0
TEXT
  8
0
  6
CONTINUOUS
 40
0.300000
 10
283.926000
 20
42.381000
  1
TIPUS   T770A
  7
ROMANC
  0
LINE
  8
1
  6
CONTINUOUS
 10
286.199000
 20
34.341000
 11
286.099000
 21
34.341000
  0
LINE
  8
1
  6
CONTINUOUS
 10
288.319000
 20
35.691000
 11
284.849000
 21
35.691000
  0
TEXT
  8
0
  6
CONTINUOUS
 40
0.300000
 10
283.922000
 20
40.529000
  1
P = 113 dm
  7
ROMANC
  0
TEXT
  8
0
  6
CONTINUOUS
 40
0.300000
 10
283.945000
 20
41.099000
  1
S = 763 dm
  7
ROMANC
  0
LINE
  8
1
  6
CONTINUOUS
 10
284.849000
 20
35.691000
 11
284.849000
 21
33.491000
  0
LINE
  8
1
  6
CONTINUOUS
 10
284.849000
 20
33.491000
 11
286.099000
 21
33.491000
  0
TEXT
  8
1
  6
CONTINUOUS
 40
0.075000
 10
285.364000
 20
33.030000
  1
1.25
  7
ROMANC
  0
LINE
  8
1
  6
CONTINUOUS
 10
285.326000
 20
33.067000
 11
284.849000
 21
33.067000
  0
LINE
  8
1
  6
CONTINUOUS
 10
285.621000
 20
33.067000
 11
286.099000
 21
33.067000
  0
LINE
  8
1
  6
CONTINUOUS
 10
284.812000
 20
33.048000
 11
284.886000
 21
33.086000
  0
LINE
  8
1
  6
CONTINUOUS
 10
286.136000
 20
33.086000
 11
286.062000
 21
33.048000
  0
LINE
  8
1
  6
CONTINUOUS
 10
284.849000
 20
33.453000
 11
284.849000
 21
33.029000
  0
LINE
  8
1
  6
CONTINUOUS
 10
286.099000
 20
33.453000
 11
286.099000
 21
33.029000
  0
LINE
  8
1
  6
CONTINUOUS
 10
286.199000
 20
33.491000
 11
286.199000
 21
34.341000
  0
LINE
  8
1
  6
CONTINUOUS
 10
286.199000
 20
33.491000
 11
288.319000
 21
33.491000
  0
TEXT
  8
1
  6
CONTINUOUS
 40
0.075000
 10
287.149000
 20
33.030000
  1
2.12
  7
ROMANC
  0
LINE
  8
1
  6
CONTINUOUS
 10
287.111000
 20
33.067000
 11
286.199000
 21
33.067000
  0
LINE
  8
1
  6
CONTINUOUS
 10
287.406000
 20
33.067000
 11
288.319000
 21
33.067000
  0
LINE
  8
1
  6
CONTINUOUS
 10
286.162000
 20
33.048000
 11
286.236000
 21
33.086000
  0
LINE
  8
1
  6
CONTINUOUS
 10
288.356000
 20
33.086000
 11
288.282000
 21
33.048000
  0
LINE
  8
1
  6
CONTINUOUS
 10
286.199000
 20
33.453000
 11
286.199000
 21
33.029000
  0
LINE
  8
1
  6
CONTINUOUS
 10
288.319000
 20
33.453000
 11
288.319000
 21
33.029000
  0
LINE
  8
1
  6
CONTINUOUS
 10
286.099000
 20
34.341000
 11
286.099000
 21
33.491000
  0
LINE
  8
1
  6
CONTINUOUS
 10
286.099000
 20
33.491000
 11
286.199000
 21
33.491000
  0
TEXT
  8
1
  6
CONTINUOUS
 40
0.075000
 10
285.693000
 20
33.282000
  1
0.10
  7
ROMANC
  0
LINE
  8
1
  6
CONTINUOUS
 10
286.026000
 20
33.319000
 11
286.099000
 21
33.319000
  0
LINE
  8
1
  6
CONTINUOUS
 10
286.349000
 20
33.319000
 11
286.199000
 21
33.319000
  0
LINE
  8
1
  6
CONTINUOUS
 10
286.136000
 20
33.338000
 11
286.062000
 21
33.300000
  0
LINE
  8
1
  6
CONTINUOUS
 10
286.162000
 20
33.300000
 11
286.236000
 21
33.338000
  0
LINE
  8
1
  6
CONTINUOUS
 10
286.099000
 20
33.453000
 11
286.099000
 21
33.281000
  0
LINE
  8
1
  6
CONTINUOUS
 10
286.199000
 20
33.453000
 11
286.199000
 21
33.281000
  0
TEXT
  8
1
  6
CONTINUOUS
 40
0.075000
 10
286.432000
 20
33.797000
  1
0.85
 50
90.000000
  7
ROMANC
  0
LINE
  8
1
  6
CONTINUOUS
 10
286.394000
 20
33.759000
 11
286.394000
 21
33.491000
  0
LINE
  8
1
  6
CONTINUOUS
 10
286.394000
 20
34.071000
 11
286.394000
 21
34.341000
  0
LINE
  8
1
  6
CONTINUOUS
 10
286.413000
 20
33.454000
 11
286.375000
 21
33.528000
  0
LINE
  8
1
  6
CONTINUOUS
 10
286.375000
 20
34.378000
 11
286.413000
 21
34.304000
  0
LINE
  8
1
  6
CONTINUOUS
 10
286.237000
 20
33.491000
 11
286.432000
 21
33.491000
  0
LINE
  8
1
  6
CONTINUOUS
 10
286.237000
 20
34.341000
 11
286.432000
 21
34.341000
  0
LINE
  8
1
  6
CONTINUOUS
 10
288.319000
 20
33.491000
 11
288.319000
 21
35.691000
  0
TEXT
  8
1
  6
CONTINUOUS
 40
0.075000
 10
288.648000
 20
34.472000
  1
2.20
 50
90.000000
  7
ROMANC
  0
LINE
  8
1
  6
CONTINUOUS
 10
288.611000
 20
34.434000
 11
288.611000
 21
33.491000
  0
LINE
  8
1
  6
CONTINUOUS
 10
288.611000
 20
34.746000
 11
288.611000
 21
35.691000
  0
LINE
  8
1
  6
CONTINUOUS
 10
288.630000
 20
33.454000
 11
288.592000
 21
33.528000
  0
LINE
  8
1
  6
CONTINUOUS
 10
288.592000
 20
35.728000
 11
288.630000
 21
35.654000
  0
LINE
  8
1
  6
CONTINUOUS
 10
288.357000
 20
33.491000
 11
288.649000
 21
33.491000
  0
LINE
  8
1
  6
CONTINUOUS
 10
288.357000
 20
35.691000
 11
288.649000
 21
35.691000
  0
TEXT
  8
1
  6
CONTINUOUS
 40
0.075000
 10
286.462000
 20
32.730000
  1
3.47
  7
ROMANC
  0
LINE
  8
1
  6
CONTINUOUS
 10
286.424000
 20
32.768000
 11
284.849000
 21
32.768000
  0
LINE
  8
1
  6
CONTINUOUS
 10
286.743000
 20
32.768000
 11
288.319000
 21
32.768000
  0
LINE
  8
1
  6
CONTINUOUS
 10
284.812000
 20
32.749000
 11
284.886000
 21
32.787000
  0
LINE
  8
1
  6
CONTINUOUS
 10
288.356000
 20
32.787000
 11
288.282000
 21
32.749000
  0
LINE
  8
1
  6
CONTINUOUS
 10
284.849000
 20
33.453000
 11
284.849000
 21
32.730000
  0
LINE
  8
1
  6
CONTINUOUS
 10
288.319000
 20
33.453000
 11
288.319000
 21
32.730000
  0
LINE
  8
1
  6
CONTINUOUS
 10
288.329000
 20
35.701000
 11
284.839000
 21
35.701000
  0
LINE
  8
1
  6
CONTINUOUS
 10
288.339000
 20
35.711000
 11
284.829000
 21
35.711000
  0
LINE
  8
1
  6
CONTINUOUS
 10
284.839000
 20
35.701000
 11
284.839000
 21
33.481000
  0
LINE
  8
1
  6
CONTINUOUS
 10
284.829000
 20
35.711000
 11
284.829000
 21
33.471000
  0
LINE
  8
1
  6
CONTINUOUS
 10
284.839000
 20
33.481000
 11
286.099000
 21
33.481000
  0
LINE
  8
1
  6
CONTINUOUS
 10
284.829000
 20
33.471000
 11
286.099000
 21
33.471000
  0
LINE
  8
1
  6
CONTINUOUS
 10
286.199000
 20
33.481000
 11
288.329000
 21
33.481000
  0
LINE
  8
1
  6
CONTINUOUS
 10
286.199000
 20
33.471000
 11
288.339000
 21
33.471000
  0
LINE
  8
1
  6
CONTINUOUS
 10
286.099000
 20
33.481000
 11
286.199000
 21
33.481000
  0
LINE
  8
1
  6
CONTINUOUS
 10
286.099000
 20
33.471000
 11
286.199000
 21
33.471000
  0
LINE
  8
1
  6
CONTINUOUS
 10
288.329000
 20
33.481000
 11
288.329000
 21
35.701000
  0
LINE
  8
1
  6
CONTINUOUS
 10
288.339000
 20
33.471000
 11
288.339000
 21
35.711000
  0
LINE
  8
1
  6
CONTINUOUS
 10
286.181000
 20
33.491000
 11
286.181000
 21
34.341000
  0
LINE
  8
1
  6
CONTINUOUS
 10
286.163000
 20
33.491000
 11
286.163000
 21
34.341000
  0
LINE
  8
1
  6
CONTINUOUS
 10
286.145000
 20
33.491000
 11
286.145000
 21
34.341000
  0
LINE
  8
1
  6
CONTINUOUS
 10
286.127000
 20
33.491000
 11
286.127000
 21
34.341000
  0
ENDSEC
  0
EOF
