  0
SECTION
  2
HEADER
  9
$ACADVER
  1
AC1009
  9
$INSBASE
 10
0.0
 20
0.0
 30
0.0
  9
$EXTMIN
 10
281.396
 20
29.897
 30
0.0
  9
$EXTMAX
 10
291.896
 20
44.747
 30
0.0
  9
$LIMMIN
 10
280.396
 20
28.897
  9
$LIMMAX
 10
292.896
 20
43.747
  9
$ORTHOMODE
 70
     0
  9
$REGENMODE
 70
     1
  9
$FILLMODE
 70
     1
  9
$QTEXTMODE
 70
     0
  9
$MIRRTEXT
 70
     1
  9
$DRAGMODE
 70
     2
  9
$LTSCALE
 40
1.0
  9
$OSMODE
 70
     0
  9
$ATTMODE
 70
     1
  9
$TEXTSIZE
 40
0.2
  9
$TRACEWID
 40
0.05
  9
$TEXTSTYLE
  7
STANDARD
  9
$CLAYER
  8
0
  9
$CELTYPE
  6
BYLAYER
  9
$CECOLOR
 62
   256
  9
$DIMSCALE
 40
1.0
  9
$DIMASZ
 40
0.18
  9
$DIMEXO
 40
0.0625
  9
$DIMDLI
 40
0.38
  9
$DIMRND
 40
0.0
  9
$DIMDLE
 40
0.0
  9
$DIMEXE
 40
0.18
  9
$DIMTP
 40
0.0
  9
$DIMTM
 40
0.0
  9
$DIMTXT
 40
0.18
  9
$DIMCEN
 40
0.09
  9
$DIMTSZ
 40
0.0
  9
$DIMTOL
 70
     0
  9
$DIMLIM
 70
     0
  9
$DIMTIH
 70
     1
  9
$DIMTOH
 70
     1
  9
$DIMSE1
 70
     0
  9
$DIMSE2
 70
     0
  9
$DIMTAD
 70
     0
  9
$DIMZIN
 70
     0
  9
$DIMBLK
  1

  9
$DIMASO
 70
     1
  9
$DIMSHO
 70
     1
  9
$DIMPOST
  1

  9
$DIMAPOST
  1

  9
$DIMALT
 70
     0
  9
$DIMALTD
 70
     2
  9
$DIMALTF
 40
25.4
  9
$DIMLFAC
 40
1.0
  9
$DIMTOFL
 70
     0
  9
$DIMTVP
 40
0.0
  9
$DIMTIX
 70
     0
  9
$DIMSOXD
 70
     0
  9
$DIMSAH
 70
     0
  9
$DIMBLK1
  1

  9
$DIMBLK2
  1

  9
$DIMSTYLE
  2
*UNNAMED
  9
$DIMCLRD
 70
     0
  9
$DIMCLRE
 70
     0
  9
$DIMCLRT
 70
     0
  9
$DIMTFAC
 40
1.0
  9
$DIMGAP
 40
0.09
  9
$LUNITS
 70
     2
  9
$LUPREC
 70
     4
  9
$SKETCHINC
 40
0.1
  9
$FILLETRAD
 40
0.0
  9
$AUNITS
 70
     0
  9
$AUPREC
 70
     0
  9
$MENU
  1
acad
  9
$ELEVATION
 40
0.0
  9
$PELEVATION
 40
0.0
  9
$THICKNESS
 40
0.0
  9
$LIMCHECK
 70
     0
  9
$BLIPMODE
 70
     1
  9
$CHAMFERA
 40
0.0
  9
$CHAMFERB
 40
0.0
  9
$SKPOLY
 70
     0
  9
$TDCREATE
 40
2448315.373408102
  9
$TDUPDATE
 40
2448315.373408102
  9
$TDINDWG
 40
0.0000000000
  9
$TDUSRTIMER
 40
0.0000000000
  9
$USRTIMER
 70
     1
  9
$ANGBASE
 50
0.0
  9
$ANGDIR
 70
     0
  9
$PDMODE
 70
     0
  9
$PDSIZE
 40
0.0
  9
$PLINEWID
 40
0.0
  9
$COORDS
 70
     0
  9
$SPLFRAME
 70
     0
  9
$SPLINETYPE
 70
     6
  9
$SPLINESEGS
 70
     8
  9
$ATTDIA
 70
     0
  9
$ATTREQ
 70
     1
  9
$HANDLING
 70
     0
  9
$HANDSEED
  5
0
  9
$SURFTAB1
 70
     6
  9
$SURFTAB2
 70
     6
  9
$SURFTYPE
 70
     6
  9
$SURFU
 70
     6
  9
$SURFV
 70
     6
  9
$UCSNAME
  2

  9
$UCSORG
 10
0.0
 20
0.0
 30
0.0
  9
$UCSXDIR
 10
1.0
 20
0.0
 30
0.0
  9
$UCSYDIR
 10
0.0
 20
1.0
 30
0.0
  9
$PUCSNAME
  2

  9
$PUCSORG
 10
0.0
 20
0.0
 30
0.0
  9
$PUCSXDIR
 10
1.0
 20
0.0
 30
0.0
  9
$PUCSYDIR
 10
0.0
 20
1.0
 30
0.0
  9
$USERI1
 70
     0
  9
$USERI2
 70
     0
  9
$USERI3
 70
     0
  9
$USERI4
 70
     0
  9
$USERI5
 70
     0
  9
$USERR1
 40
0.0
  9
$USERR2
 40
0.0
  9
$USERR3
 40
0.0
  9
$USERR4
 40
0.0
  9
$USERR5
 40
0.0
  9
$WORLDVIEW
 70
     1
  9
$SHADEDGE
 70
     3
  9
$SHADEDIF
 70
    70
  9
$TILEMODE
 70
     1
  9
$MAXACTVP
 70
    16
  9
$PINSBASE
 10
0.0
 20
0.0
 30
0.0
  9
$PLIMCHECK
 70
     0
  9
$PEXTMIN
 10
1.000000E+20
 20
1.000000E+20
 30
1.000000E+20
  9
$PEXTMAX
 10
-1.000000E+20
 20
-1.000000E+20
 30
-1.000000E+20
  9
$PLIMMIN
 10
0.0
 20
0.0
  9
$PLIMMAX
 10
12.0
 20
9.0
  9
$UNITMODE
 70
     0
  9
$VISRETAIN
 70
     0
  9
$PLINEGEN
 70
     0
  9
$PSLTSCALE
 70
     0
  9
$TREEDEPTH
 70
  3020
  9
$DWGCODEPAGE
  3
iso8859-1
  0
ENDSEC
  0
SECTION
  2
TABLES
  0
TABLE
  2
VPORT
 70
     2
  0
VPORT
  2
*ACTIVE
 70
     0
 10
0.0
 20
0.0
 11
1.0
 21
1.0
 12
293.163362
 22
36.822
 13
0.0
 23
0.0
 14
1.0
 24
1.0
 15
10.0
 25
10.0
 16
0.0
 26
0.0
 36
1.0
 17
0.0
 27
0.0
 37
0.0
 40
15.85
 41
1.611024
 42
50.0
 43
0.0
 44
0.0
 50
0.0
 51
0.0
 71
     0
 72
   100
 73
     1
 74
     0
 75
     0
 76
     0
 77
     0
 78
     0
  0
ENDTAB
  0
TABLE
  2
LTYPE
 70
     1
  0
LTYPE
  2
CONTINUOUS
 70
    64
  3
Solid line
 72
    65
 73
     0
 40
0.0
  0
ENDTAB
  0
TABLE
  2
LAYER
 70
     7
  0
LAYER
  2
0
 70
    64
 62
     7
  6
CONTINUOUS
  0
LAYER
  2
1
 70
    64
 62
     7
  6
CONTINUOUS
  0
LAYER
  2
7
 70
    64
 62
     7
  6
CONTINUOUS
  0
LAYER
  2
8
 70
    64
 62
     7
  6
CONTINUOUS
  0
LAYER
  2
9
 70
    64
 62
     7
  6
CONTINUOUS
  0
LAYER
  2
22
 70
    64
 62
     7
  6
CONTINUOUS
  0
LAYER
  2
25
 70
    64
 62
     7
  6
CONTINUOUS
  0
ENDTAB
  0
TABLE
  2
STYLE
 70
     2
  0
STYLE
  2
STANDARD
 70
    64
 40
0.0
 41
1.0
 50
0.0
 71
     0
 42
3.5
  3
C:\APLIC\ACADWIN\FONTS\ROMANS.SHX
  4

  0
STYLE
  2
ROMANC
 70
     0
 40
0.0
 41
1.0
 50
0.0
 71
     0
 42
0.2
  3
ROMANC
  4

  0
ENDTAB
  0
TABLE
  2
VIEW
 70
     0
  0
ENDTAB
  0
TABLE
  2
UCS
 70
     0
  0
ENDTAB
  0
TABLE
  2
APPID
 70
     1
  0
APPID
  2
ACAD
 70
    64
  0
ENDTAB
  0
TABLE
  2
DIMSTYLE
 70
     0
  0
ENDTAB
  0
ENDSEC
  0
SECTION
  2
BLOCKS
  0
ENDSEC
  0
SECTION
  2
ENTITIES
  0
TEXT
  8
0
  6
CONTINUOUS
 10
286.909
 20
41.324
 30
0.0
 40
0.1
  1
2
  7
ROMANC
  0
TEXT
  8
0
  6
CONTINUOUS
 10
283.926
 20
41.768
 30
0.0
 40
0.3
  1
ESCALA  1:50
  7
ROMANC
  0
POLYLINE
  8
0
  6
CONTINUOUS
 66
     1
 10
0.0
 20
0.0
 30
0.0
 70
     1
  0
VERTEX
  8
0
  6
CONTINUOUS
 10
281.396
 20
44.747
 30
0.0
  0
VERTEX
  8
0
  6
CONTINUOUS
 10
291.896
 20
44.747
 30
0.0
  0
VERTEX
  8
0
  6
CONTINUOUS
 10
291.896
 20
29.897
 30
0.0
  0
VERTEX
  8
0
  6
CONTINUOUS
 10
281.396
 20
29.897
 30
0.0
  0
SEQEND
  8
0
  0
TEXT
  8
0
  6
CONTINUOUS
 10
283.926
 20
42.381
 30
0.0
 40
0.3
  1
TIPUS   T74B
  7
ROMANC
  0
LINE
  8
1
  6
CONTINUOUS
 10
285.475
 20
33.96
 30
0.0
 11
285.475
 21
34.96
 31
0.0
  0
TEXT
  8
0
  6
CONTINUOUS
 10
283.922
 20
40.529
 30
0.0
 40
0.3
  1
P = 35 dm
  7
ROMANC
  0
TEXT
  8
0
  6
CONTINUOUS
 10
283.945
 20
41.099
 30
0.0
 40
0.3
  1
S = 74 dm
  7
ROMANC
  0
LINE
  8
1
  6
CONTINUOUS
 10
286.075
 20
33.96
 30
0.0
 11
285.475
 21
33.96
 31
0.0
  0
LINE
  8
1
  6
CONTINUOUS
 10
286.075
 20
34.96
 30
0.0
 11
286.075
 21
33.96
 31
0.0
  0
TEXT
  8
1
  6
CONTINUOUS
 10
286.324
 20
34.35
 30
0.0
 40
0.075
  1
1.00
 50
90.0
  7
ROMANC
  0
LINE
  8
1
  6
CONTINUOUS
 10
286.287
 20
34.312
 30
0.0
 11
286.287
 21
33.96
 31
0.0
  0
LINE
  8
1
  6
CONTINUOUS
 10
286.287
 20
34.607
 30
0.0
 11
286.287
 21
34.96
 31
0.0
  0
LINE
  8
1
  6
CONTINUOUS
 10
286.306
 20
33.922
 30
0.0
 11
286.268
 21
33.998
 31
0.0
  0
LINE
  8
1
  6
CONTINUOUS
 10
286.268
 20
34.998
 30
0.0
 11
286.306
 21
34.922
 31
0.0
  0
LINE
  8
1
  6
CONTINUOUS
 10
286.113
 20
33.96
 30
0.0
 11
286.325
 21
33.96
 31
0.0
  0
LINE
  8
1
  6
CONTINUOUS
 10
286.113
 20
34.96
 30
0.0
 11
286.325
 21
34.96
 31
0.0
  0
ARC
  8
1
  6
CONTINUOUS
 10
285.775
 20
34.96
 30
0.0
 40
0.3
 50
0.0
 51
180.0
  0
TEXT
  8
1
  6
CONTINUOUS
 10
286.324
 20
34.999
 30
0.0
 40
0.075
  1
0.30
 50
90.0
  7
ROMANC
  0
LINE
  8
1
  6
CONTINUOUS
 10
286.287
 20
34.81
 30
0.0
 11
286.287
 21
34.96
 31
0.0
  0
LINE
  8
1
  6
CONTINUOUS
 10
286.287
 20
35.41
 30
0.0
 11
286.287
 21
35.26
 31
0.0
  0
LINE
  8
1
  6
CONTINUOUS
 10
286.268
 20
34.998
 30
0.0
 11
286.306
 21
34.922
 31
0.0
  0
LINE
  8
1
  6
CONTINUOUS
 10
286.306
 20
35.222
 30
0.0
 11
286.268
 21
35.298
 31
0.0
  0
LINE
  8
1
  6
CONTINUOUS
 10
286.113
 20
34.96
 30
0.0
 11
286.325
 21
34.96
 31
0.0
  0
LINE
  8
1
  6
CONTINUOUS
 10
285.813
 20
35.26
 30
0.0
 11
286.325
 21
35.26
 31
0.0
  0
TEXT
  8
1
  6
CONTINUOUS
 10
286.58
 20
34.5
 30
0.0
 40
0.075
  1
1.30
 50
90.0
  7
ROMANC
  0
LINE
  8
1
  6
CONTINUOUS
 10
286.543
 20
34.462
 30
0.0
 11
286.543
 21
33.96
 31
0.0
  0
LINE
  8
1
  6
CONTINUOUS
 10
286.543
 20
34.757
 30
0.0
 11
286.543
 21
35.26
 31
0.0
  0
LINE
  8
1
  6
CONTINUOUS
 10
286.562
 20
33.922
 30
0.0
 11
286.524
 21
33.998
 31
0.0
  0
LINE
  8
1
  6
CONTINUOUS
 10
286.524
 20
35.298
 30
0.0
 11
286.562
 21
35.222
 31
0.0
  0
LINE
  8
1
  6
CONTINUOUS
 10
286.113
 20
33.96
 30
0.0
 11
286.581
 21
33.96
 31
0.0
  0
LINE
  8
1
  6
CONTINUOUS
 10
285.813
 20
35.26
 30
0.0
 11
286.581
 21
35.26
 31
0.0
  0
ARC
  8
1
  6
CONTINUOUS
 10
285.775
 20
34.96
 30
0.0
 40
0.31
 50
0.0
 51
180.0
  0
ARC
  8
1
  6
CONTINUOUS
 10
285.775
 20
34.96
 30
0.0
 40
0.32
 50
0.0
 51
180.0
  0
LINE
  8
1
  6
CONTINUOUS
 10
285.465
 20
33.95
 30
0.0
 11
285.465
 21
34.96
 31
0.0
  0
LINE
  8
1
  6
CONTINUOUS
 10
285.455
 20
33.94
 30
0.0
 11
285.455
 21
34.96
 31
0.0
  0
LINE
  8
1
  6
CONTINUOUS
 10
286.085
 20
34.96
 30
0.0
 11
286.085
 21
33.95
 31
0.0
  0
LINE
  8
1
  6
CONTINUOUS
 10
286.095
 20
34.96
 30
0.0
 11
286.095
 21
33.96
 31
0.0
  0
LINE
  8
1
  6
CONTINUOUS
 10
286.085
 20
33.95
 30
0.0
 11
285.465
 21
33.95
 31
0.0
  0
LINE
  8
1
  6
CONTINUOUS
 10
286.075
 20
33.94
 30
0.0
 11
285.455
 21
33.94
 31
0.0
  0
TEXT
  8
1
  6
CONTINUOUS
 10
285.656
 20
33.684
 30
0.0
 40
0.075
  1
0.60
  7
ROMANC
  0
LINE
  8
1
  6
CONTINUOUS
 10
285.325
 20
33.722
 30
0.0
 11
285.475
 21
33.722
 31
0.0
  0
LINE
  8
1
  6
CONTINUOUS
 10
286.225
 20
33.722
 30
0.0
 11
286.075
 21
33.722
 31
0.0
  0
LINE
  8
1
  6
CONTINUOUS
 10
285.512
 20
33.741
 30
0.0
 11
285.438
 21
33.703
 31
0.0
  0
LINE
  8
1
  6
CONTINUOUS
 10
286.038
 20
33.703
 30
0.0
 11
286.112
 21
33.741
 31
0.0
  0
LINE
  8
1
  6
CONTINUOUS
 10
285.475
 20
33.922
 30
0.0
 11
285.475
 21
33.684
 31
0.0
  0
LINE
  8
1
  6
CONTINUOUS
 10
286.075
 20
33.922
 30
0.0
 11
286.075
 21
33.684
 31
0.0
  0
ENDSEC
  0
EOF
