  0
SECTION
  2
HEADER
  9
$ACADVER
  1
AC1009
  9
$INSBASE
 10
0.0
 20
0.0
 30
0.0
  9
$EXTMIN
 10
281.396000
 20
29.897000
 30
-2147483.648000
  9
$EXTMAX
 10
291.896000
 20
44.747000
 30
0.000000
  9
$LIMMIN
 10
280.396000
 20
28.897000
  9
$LIMMAX
 10
292.896000
 20
43.747000
  9
$ORTHOMODE
 70
     0
  9
$REGENMODE
 70
     1
  9
$FILLMODE
 70
     1
  9
$QTEXTMODE
 70
     0
  9
$MIRRTEXT
 70
     1
  9
$DRAGMODE
 70
     2
  9
$LTSCALE
 40
1.0
  9
$OSMODE
 70
     0
  9
$ATTMODE
 70
     1
  9
$TEXTSIZE
 40
0.2
  9
$TRACEWID
 40
0.05
  9
$TEXTSTYLE
  7
STANDARD
  9
$CLAYER
  8
0
  9
$CELTYPE
  6
BYLAYER
  9
$CECOLOR
 62
   256
  9
$DIMSCALE
 40
1.0
  9
$DIMASZ
 40
0.18
  9
$DIMEXO
 40
0.0625
  9
$DIMDLI
 40
0.38
  9
$DIMRND
 40
0.0
  9
$DIMDLE
 40
0.0
  9
$DIMEXE
 40
0.18
  9
$DIMTP
 40
0.0
  9
$DIMTM
 40
0.0
  9
$DIMTXT
 40
0.18
  9
$DIMCEN
 40
0.09
  9
$DIMTSZ
 40
0.0
  9
$DIMTOL
 70
     0
  9
$DIMLIM
 70
     0
  9
$DIMTIH
 70
     1
  9
$DIMTOH
 70
     1
  9
$DIMSE1
 70
     0
  9
$DIMSE2
 70
     0
  9
$DIMTAD
 70
     0
  9
$DIMZIN
 70
     0
  9
$DIMBLK
  1

  9
$DIMASO
 70
     1
  9
$DIMSHO
 70
     1
  9
$DIMPOST
  1

  9
$DIMAPOST
  1

  9
$DIMALT
 70
     0
  9
$DIMALTD
 70
     2
  9
$DIMALTF
 40
25.4
  9
$DIMLFAC
 40
1.0
  9
$DIMTOFL
 70
     0
  9
$DIMTVP
 40
0.0
  9
$DIMTIX
 70
     0
  9
$DIMSOXD
 70
     0
  9
$DIMSAH
 70
     0
  9
$DIMBLK1
  1

  9
$DIMBLK2
  1

  9
$DIMSTYLE
  2
*UNNAMED
  9
$DIMCLRD
 70
     0
  9
$DIMCLRE
 70
     0
  9
$DIMCLRT
 70
     0
  9
$DIMTFAC
 40
1.0
  9
$DIMGAP
 40
0.09
  9
$LUNITS
 70
     2
  9
$LUPREC
 70
     4
  9
$AXISMODE
 70
     0
  9
$AXISUNIT
 10
0.0
 20
0.0
  9
$SKETCHINC
 40
0.1
  9
$FILLETRAD
 40
0.0
  9
$AUNITS
 70
     0
  9
$AUPREC
 70
     0
  9
$MENU
  1
acad
  9
$ELEVATION
 40
0.0
  9
$PELEVATION
 40
0.0
  9
$THICKNESS
 40
0.0
  9
$LIMCHECK
 70
     0
  9
$BLIPMODE
 70
     1
  9
$CHAMFERA
 40
0.0
  9
$CHAMFERB
 40
0.0
  9
$SKPOLY
 70
     0
  9
$TDCREATE
 40
2448315.373408102
  9
$TDUPDATE
 40
2448315.373408102
  9
$TDINDWG
 40
0.0000000000
  9
$TDUSRTIMER
 40
0.0000000000
  9
$USRTIMER
 70
     1
  9
$ANGBASE
 50
0.0
  9
$ANGDIR
 70
     0
  9
$PDMODE
 70
     0
  9
$PDSIZE
 40
0.0
  9
$PLINEWID
 40
0.0
  9
$COORDS
 70
     0
  9
$SPLFRAME
 70
     0
  9
$SPLINETYPE
 70
     6
  9
$SPLINESEGS
 70
     8
  9
$ATTDIA
 70
     0
  9
$ATTREQ
 70
     1
  9
$HANDLING
 70
     0
  9
$HANDSEED
  5
0
  9
$SURFTAB1
 70
     6
  9
$SURFTAB2
 70
     6
  9
$SURFTYPE
 70
     6
  9
$SURFU
 70
     6
  9
$SURFV
 70
     6
  9
$UCSNAME
  2

  9
$UCSORG
 10
0.0
 20
0.0
 30
0.0
  9
$UCSXDIR
 10
1.0
 20
0.0
 30
0.0
  9
$UCSYDIR
 10
0.0
 20
1.0
 30
0.0
  9
$PUCSNAME
  2

  9
$PUCSORG
 10
0.0
 20
0.0
 30
0.0
  9
$PUCSXDIR
 10
1.0
 20
0.0
 30
0.0
  9
$PUCSYDIR
 10
0.0
 20
1.0
 30
0.0
  9
$USERI1
 70
     0
  9
$USERI2
 70
     0
  9
$USERI3
 70
     0
  9
$USERI4
 70
     0
  9
$USERI5
 70
     0
  9
$USERR1
 40
0.0
  9
$USERR2
 40
0.0
  9
$USERR3
 40
0.0
  9
$USERR4
 40
0.0
  9
$USERR5
 40
0.0
  9
$WORLDVIEW
 70
     1
  9
$SHADEDGE
 70
     3
  9
$SHADEDIF
 70
    70
  9
$TILEMODE
 70
     1
  9
$MAXACTVP
 70
    16
  9
$PINSBASE
 10
0.0
 20
0.0
 30
0.0
  9
$PLIMCHECK
 70
     0
  9
$PEXTMIN
 10
1.000000E+20
 20
1.000000E+20
 30
1.000000E+20
  9
$PEXTMAX
 10
-1.000000E+20
 20
-1.000000E+20
 30
-1.000000E+20
  9
$PLIMMIN
 10
0.0
 20
0.0
  9
$PLIMMAX
 10
12.0
 20
9.0
  9
$UNITMODE
 70
     0
  9
$VISRETAIN
 70
     0
  0
ENDSEC
  0
SECTION
  2
TABLES
  0
TABLE
  2
LTYPE
 70
    1
  0
LTYPE
  2
CONTINUOUS
 70
    64
3
Solid line
 72
    65
 73
0
 40
0.000000
  0
ENDTAB
  0
TABLE
  2
LAYER
 70
    8
  0
LAYER
  2
0
 70
    64
 62
7
  6
CONTINUOUS
  0
LAYER
  2
1
 70
    64
 62
7
  6
CONTINUOUS
  0
LAYER
  2
7
 70
    64
 62
7
  6
CONTINUOUS
  0
LAYER
  2
8
 70
    64
 62
7
  6
CONTINUOUS
  0
LAYER
  2
9
 70
    64
 62
7
  6
CONTINUOUS
  0
LAYER
  2
22
 70
    64
 62
7
  6
CONTINUOUS
  0
LAYER
  2
25
 70
    64
 62
7
  6
CONTINUOUS
  0
LAYER
  2
0
 70
    64
 62
7
  6
CONTINUOUS
  0
ENDTAB
  0
TABLE
  2
STYLE
 70
    1
  0
STYLE
  2
ROMANC
70
     0
 40
0.0
 41
1.0
 50
0.0
 71
     0
 42
0.2
  3
ROMANC
  4

  0
ENDTAB
  0
ENDSEC
  0
SECTION
  2
BLOCKS
  0
ENDSEC
  0
SECTION
  2
ENTITIES
  0
TEXT
  8
0
  6
CONTINUOUS
 40
0.100000
 10
286.909000
 20
41.324000
  1
2
  7
ROMANC
  0
TEXT
  8
0
  6
CONTINUOUS
 40
0.300000
 10
283.926000
 20
41.768000
  1
ESCALA  1:50
  7
ROMANC
  0
POLYLINE
  8
0
  6
CONTINUOUS
 66
     1
 70
     1
  0
VERTEX
  8
0
  6
CONTINUOUS
 10
281.396000
 20
44.747000
  0
VERTEX
  8
0
  6
CONTINUOUS
 10
291.896000
 20
44.747000
  0
VERTEX
  8
0
  6
CONTINUOUS
 10
291.896000
 20
29.897000
  0
VERTEX
  8
0
  6
CONTINUOUS
 10
281.396000
 20
29.897000
  0
SEQEND
  8
0
  0
TEXT
  8
0
  6
CONTINUOUS
 40
0.300000
 10
283.926000
 20
42.381000
  1
TIPUS   T69A
  7
ROMANC
  0
ARC
  8
1
  6
CONTINUOUS
 10
286.393000
 20
34.446000
 40
0.400000
 50
360.000000
 51
540.000000
  0
POLYLINE
  8
1
  6
CONTINUOUS
 66
     1
 70
     0
  0
VERTEX
  8
1
  6
CONTINUOUS
 10
285.993000
 20
34.446000
 42
0.018658
  0
VERTEX
  8
1
  6
CONTINUOUS
 10
285.996378
 20
34.355152
 42
0.019316
  0
VERTEX
  8
1
  6
CONTINUOUS
 10
286.006630
 20
34.264827
 42
0.019755
  0
VERTEX
  8
1
  6
CONTINUOUS
 10
286.023098
 20
34.179571
 42
0.021918
  0
VERTEX
  8
1
  6
CONTINUOUS
 10
286.046590
 20
34.096000
 42
0.022921
  0
VERTEX
  8
1
  6
CONTINUOUS
 10
286.074756
 20
34.021902
 42
0.027178
  0
VERTEX
  8
1
  6
CONTINUOUS
 10
286.110157
 20
33.951025
 42
0.029023
  0
VERTEX
  8
1
  6
CONTINUOUS
 10
286.147984
 20
33.892673
 42
0.036209
  0
VERTEX
  8
1
  6
CONTINUOUS
 10
286.193000
 20
33.839782
 42
0.039203
  0
VERTEX
  8
1
  6
CONTINUOUS
 10
286.238228
 20
33.800555
 42
0.048714
  0
VERTEX
  8
1
  6
CONTINUOUS
 10
286.289472
 20
33.769852
 42
0.052010
  0
VERTEX
  8
1
  6
CONTINUOUS
 10
286.339980
 20
33.752288
 42
0.057393
  0
VERTEX
  8
1
  6
CONTINUOUS
 10
286.393000
 20
33.746000
 42
0.057393
  0
VERTEX
  8
1
  6
CONTINUOUS
 10
286.446020
 20
33.752288
 42
0.052010
  0
VERTEX
  8
1
  6
CONTINUOUS
 10
286.496528
 20
33.769852
 42
0.048714
  0
VERTEX
  8
1
  6
CONTINUOUS
 10
286.547772
 20
33.800555
 42
0.039203
  0
VERTEX
  8
1
  6
CONTINUOUS
 10
286.593000
 20
33.839782
 42
0.036209
  0
VERTEX
  8
1
  6
CONTINUOUS
 10
286.638016
 20
33.892673
 42
0.029023
  0
VERTEX
  8
1
  6
CONTINUOUS
 10
286.675843
 20
33.951025
 42
0.027178
  0
VERTEX
  8
1
  6
CONTINUOUS
 10
286.711244
 20
34.021902
 42
0.022921
  0
VERTEX
  8
1
  6
CONTINUOUS
 10
286.739410
 20
34.096000
 42
0.021918
  0
VERTEX
  8
1
  6
CONTINUOUS
 10
286.762902
 20
34.179571
 42
0.019755
  0
VERTEX
  8
1
  6
CONTINUOUS
 10
286.779370
 20
34.264827
 42
0.019316
  0
VERTEX
  8
1
  6
CONTINUOUS
 10
286.789622
 20
34.355152
 42
0.018658
  0
VERTEX
  8
1
  6
CONTINUOUS
 10
286.793000
 20
34.446000
  0
SEQEND
  8
0
  0
TEXT
  8
0
  6
CONTINUOUS
 40
0.300000
 10
283.922000
 20
40.529000
  1
P = 30 dm
  7
ROMANC
  0
TEXT
  8
0
  6
CONTINUOUS
 40
0.300000
 10
283.945000
 20
41.099000
  1
S = 69 dm
  7
ROMANC
  0
TEXT
  8
1
  6
CONTINUOUS
 40
0.075000
 10
286.274000
 20
34.972000
  1
0.80
  7
ROMANC
  0
LINE
  8
1
  6
CONTINUOUS
 10
286.236000
 20
35.010000
 11
285.993000
 21
35.010000
  0
LINE
  8
1
  6
CONTINUOUS
 10
286.548000
 20
35.010000
 11
286.793000
 21
35.010000
  0
LINE
  8
1
  6
CONTINUOUS
 10
285.956000
 20
34.991000
 11
286.030000
 21
35.029000
  0
LINE
  8
1
  6
CONTINUOUS
 10
286.830000
 20
35.029000
 11
286.756000
 21
34.991000
  0
LINE
  8
1
  6
CONTINUOUS
 10
285.993000
 20
34.484000
 11
285.993000
 21
35.048000
  0
LINE
  8
1
  6
CONTINUOUS
 10
286.793000
 20
34.484000
 11
286.793000
 21
35.048000
  0
TEXT
  8
1
  6
CONTINUOUS
 40
0.075000
 10
287.044000
 20
34.195000
  1
1.10
 50
90.000000
  7
ROMANC
  0
LINE
  8
1
  6
CONTINUOUS
 10
287.006000
 20
34.157000
 11
287.006000
 21
33.746000
  0
LINE
  8
1
  6
CONTINUOUS
 10
287.006000
 20
34.434000
 11
287.006000
 21
34.846000
  0
LINE
  8
1
  6
CONTINUOUS
 10
287.025000
 20
33.708000
 11
286.987000
 21
33.784000
  0
LINE
  8
1
  6
CONTINUOUS
 10
286.987000
 20
34.884000
 11
287.025000
 21
34.808000
  0
LINE
  8
1
  6
CONTINUOUS
 10
286.431000
 20
33.746000
 11
287.044000
 21
33.746000
  0
LINE
  8
1
  6
CONTINUOUS
 10
286.431000
 20
34.846000
 11
287.044000
 21
34.846000
  0
ARC
  8
1
  6
CONTINUOUS
 10
286.393000
 20
34.446000
 40
0.410000
 50
360.000000
 51
540.000000
  0
ARC
  8
1
  6
CONTINUOUS
 10
286.393000
 20
34.446000
 40
0.420000
 50
360.000000
 51
540.000000
  0
POLYLINE
  8
1
  6
CONTINUOUS
 66
     1
 70
     0
  0
VERTEX
  8
1
  6
CONTINUOUS
 10
285.983000
 20
34.446000
 42
0.018855
  0
VERTEX
  8
1
  6
CONTINUOUS
 10
285.986463
 20
34.353848
 42
0.019514
  0
VERTEX
  8
1
  6
CONTINUOUS
 10
285.996970
 20
34.262238
 42
0.019952
  0
VERTEX
  8
1
  6
CONTINUOUS
 10
286.013854
 20
34.175748
 42
0.022110
  0
VERTEX
  8
1
  6
CONTINUOUS
 10
286.037930
 20
34.091000
 42
0.023110
  0
VERTEX
  8
1
  6
CONTINUOUS
 10
286.066813
 20
34.015815
 42
0.027338
  0
VERTEX
  8
1
  6
CONTINUOUS
 10
286.103086
 20
33.943954
 42
0.029167
  0
VERTEX
  8
1
  6
CONTINUOUS
 10
286.141887
 20
33.884732
 42
0.036243
  0
VERTEX
  8
1
  6
CONTINUOUS
 10
286.188000
 20
33.831122
 42
0.039179
  0
VERTEX
  8
1
  6
CONTINUOUS
 10
286.234401
 20
33.791305
 42
0.048432
  0
VERTEX
  8
1
  6
CONTINUOUS
 10
286.286884
 20
33.760193
 42
0.051612
  0
VERTEX
  8
1
  6
CONTINUOUS
 10
286.338678
 20
33.742370
 42
0.056790
  0
VERTEX
  8
1
  6
CONTINUOUS
 10
286.393000
 20
33.736000
 42
0.056790
  0
VERTEX
  8
1
  6
CONTINUOUS
 10
286.447322
 20
33.742370
 42
0.051612
  0
VERTEX
  8
1
  6
CONTINUOUS
 10
286.499116
 20
33.760193
 42
0.048432
  0
VERTEX
  8
1
  6
CONTINUOUS
 10
286.551599
 20
33.791305
 42
0.039179
  0
VERTEX
  8
1
  6
CONTINUOUS
 10
286.598000
 20
33.831122
 42
0.036243
  0
VERTEX
  8
1
  6
CONTINUOUS
 10
286.644113
 20
33.884732
 42
0.029167
  0
VERTEX
  8
1
  6
CONTINUOUS
 10
286.682914
 20
33.943954
 42
0.027338
  0
VERTEX
  8
1
  6
CONTINUOUS
 10
286.719187
 20
34.015815
 42
0.023110
  0
VERTEX
  8
1
  6
CONTINUOUS
 10
286.748070
 20
34.091000
 42
0.022110
  0
VERTEX
  8
1
  6
CONTINUOUS
 10
286.772146
 20
34.175748
 42
0.019952
  0
VERTEX
  8
1
  6
CONTINUOUS
 10
286.789030
 20
34.262238
 42
0.019514
  0
VERTEX
  8
1
  6
CONTINUOUS
 10
286.799537
 20
34.353848
 42
0.018855
  0
VERTEX
  8
1
  6
CONTINUOUS
 10
286.803000
 20
34.446000
  0
SEQEND
  8
0
  0
POLYLINE
  8
1
  6
CONTINUOUS
 66
     1
 70
     0
  0
VERTEX
  8
1
  6
CONTINUOUS
 10
285.973000
 20
34.446000
 42
0.019047
  0
VERTEX
  8
1
  6
CONTINUOUS
 10
285.976548
 20
34.352545
 42
0.019705
  0
VERTEX
  8
1
  6
CONTINUOUS
 10
285.987311
 20
34.259650
 42
0.020143
  0
VERTEX
  8
1
  6
CONTINUOUS
 10
286.004611
 20
34.171925
 42
0.022296
  0
VERTEX
  8
1
  6
CONTINUOUS
 10
286.029269
 20
34.086000
 42
0.023293
  0
VERTEX
  8
1
  6
CONTINUOUS
 10
286.058870
 20
34.009728
 42
0.027491
  0
VERTEX
  8
1
  6
CONTINUOUS
 10
286.096015
 20
33.936883
 42
0.029303
  0
VERTEX
  8
1
  6
CONTINUOUS
 10
286.135791
 20
33.876792
 42
0.036273
  0
VERTEX
  8
1
  6
CONTINUOUS
 10
286.183000
 20
33.822462
 42
0.039151
  0
VERTEX
  8
1
  6
CONTINUOUS
 10
286.230574
 20
33.782055
 42
0.048158
  0
VERTEX
  8
1
  6
CONTINUOUS
 10
286.284296
 20
33.750533
 42
0.051230
  0
VERTEX
  8
1
  6
CONTINUOUS
 10
286.337376
 20
33.732452
 42
0.056216
  0
VERTEX
  8
1
  6
CONTINUOUS
 10
286.393000
 20
33.726000
 42
0.056216
  0
VERTEX
  8
1
  6
CONTINUOUS
 10
286.448624
 20
33.732452
 42
0.051230
  0
VERTEX
  8
1
  6
CONTINUOUS
 10
286.501704
 20
33.750533
 42
0.048158
  0
VERTEX
  8
1
  6
CONTINUOUS
 10
286.555426
 20
33.782055
 42
0.039151
  0
VERTEX
  8
1
  6
CONTINUOUS
 10
286.603000
 20
33.822462
 42
0.036273
  0
VERTEX
  8
1
  6
CONTINUOUS
 10
286.650209
 20
33.876792
 42
0.029303
  0
VERTEX
  8
1
  6
CONTINUOUS
 10
286.689985
 20
33.936883
 42
0.027491
  0
VERTEX
  8
1
  6
CONTINUOUS
 10
286.727130
 20
34.009728
 42
0.023293
  0
VERTEX
  8
1
  6
CONTINUOUS
 10
286.756731
 20
34.086000
 42
0.022296
  0
VERTEX
  8
1
  6
CONTINUOUS
 10
286.781389
 20
34.171925
 42
0.020143
  0
VERTEX
  8
1
  6
CONTINUOUS
 10
286.798689
 20
34.259650
 42
0.019705
  0
VERTEX
  8
1
  6
CONTINUOUS
 10
286.809452
 20
34.352545
 42
0.019047
  0
VERTEX
  8
1
  6
CONTINUOUS
 10
286.813000
 20
34.446000
  0
SEQEND
  8
0
  0
ENDSEC
  0
EOF
