  0
SECTION
  2
HEADER
  9
$ACADVER
  1
AC1009
  9
$INSBASE
 10
95.268503
 20
80.919403
 30
0.0
  9
$EXTMIN
 10
95.268503
 20
80.919403
 30
0.0
  9
$EXTMAX
 10
105.768503
 20
95.769403
 30
0.0
  9
$LIMMIN
 10
0.0
 20
0.0
  9
$LIMMAX
 10
410.0
 20
287.0
  9
$ORTHOMODE
 70
     1
  9
$REGENMODE
 70
     1
  9
$FILLMODE
 70
     1
  9
$QTEXTMODE
 70
     0
  9
$MIRRTEXT
 70
     1
  9
$DRAGMODE
 70
     2
  9
$LTSCALE
 40
25.0
  9
$OSMODE
 70
    32
  9
$ATTMODE
 70
     1
  9
$TEXTSIZE
 40
0.1
  9
$TRACEWID
 40
1.0
  9
$TEXTSTYLE
  7
ROMANC
  9
$CLAYER
  8
0
  9
$CELTYPE
  6
BYLAYER
  9
$CECOLOR
 62
   256
  9
$DIMSCALE
 40
0.0
  9
$DIMASZ
 40
0.0
  9
$DIMEXO
 40
0.1
  9
$DIMDLI
 40
7.0
  9
$DIMRND
 40
0.0
  9
$DIMDLE
 40
0.0
  9
$DIMEXE
 40
1.8
  9
$DIMTP
 40
0.0
  9
$DIMTM
 40
0.0
  9
$DIMTXT
 40
0.03
  9
$DIMCEN
 40
1.5
  9
$DIMTSZ
 40
1.0
  9
$DIMTOL
 70
     0
  9
$DIMLIM
 70
     0
  9
$DIMTIH
 70
     0
  9
$DIMTOH
 70
     0
  9
$DIMSE1
 70
     0
  9
$DIMSE2
 70
     0
  9
$DIMTAD
 70
     0
  9
$DIMZIN
 70
     0
  9
$DIMBLK
  1

  9
$DIMASO
 70
     1
  9
$DIMSHO
 70
     0
  9
$DIMPOST
  1

  9
$DIMAPOST
  1

  9
$DIMALT
 70
     0
  9
$DIMALTD
 70
     2
  9
$DIMALTF
 40
25.4
  9
$DIMLFAC
 40
1.0
  9
$DIMTOFL
 70
     1
  9
$DIMTVP
 40
0.0
  9
$DIMTIX
 70
     1
  9
$DIMSOXD
 70
     0
  9
$DIMSAH
 70
     0
  9
$DIMBLK1
  1

  9
$DIMBLK2
  1

  9
$DIMSTYLE
  2
*UNNAMED
  9
$DIMCLRD
 70
     0
  9
$DIMCLRE
 70
     0
  9
$DIMCLRT
 70
     0
  9
$DIMTFAC
 40
116.666667
  9
$DIMGAP
 40
0.09
  9
$LUNITS
 70
     2
  9
$LUPREC
 70
     2
  9
$SKETCHINC
 40
1.0
  9
$FILLETRAD
 40
0.0
  9
$AUNITS
 70
     0
  9
$AUPREC
 70
     0
  9
$MENU
  1
acad
  9
$ELEVATION
 40
0.0
  9
$PELEVATION
 40
0.0
  9
$THICKNESS
 40
0.0
  9
$LIMCHECK
 70
     0
  9
$BLIPMODE
 70
     0
  9
$CHAMFERA
 40
0.0
  9
$CHAMFERB
 40
0.0
  9
$SKPOLY
 70
     0
  9
$TDCREATE
 40
2449962.504165162
  9
$TDUPDATE
 40
2450828.532691434
  9
$TDINDWG
 40
0.0030425926
  9
$TDUSRTIMER
 40
0.0030425926
  9
$USRTIMER
 70
     1
  9
$ANGBASE
 50
0.0
  9
$ANGDIR
 70
     0
  9
$PDMODE
 70
     0
  9
$PDSIZE
 40
0.0
  9
$PLINEWID
 40
0.0
  9
$COORDS
 70
     2
  9
$SPLFRAME
 70
     0
  9
$SPLINETYPE
 70
     6
  9
$SPLINESEGS
 70
     8
  9
$ATTDIA
 70
     0
  9
$ATTREQ
 70
     1
  9
$HANDLING
 70
     0
  9
$HANDSEED
  5
0
  9
$SURFTAB1
 70
     6
  9
$SURFTAB2
 70
     6
  9
$SURFTYPE
 70
     6
  9
$SURFU
 70
     6
  9
$SURFV
 70
     6
  9
$UCSNAME
  2

  9
$UCSORG
 10
0.0
 20
0.0
 30
0.0
  9
$UCSXDIR
 10
1.0
 20
0.0
 30
0.0
  9
$UCSYDIR
 10
0.0
 20
1.0
 30
0.0
  9
$PUCSNAME
  2

  9
$PUCSORG
 10
0.0
 20
0.0
 30
0.0
  9
$PUCSXDIR
 10
1.0
 20
0.0
 30
0.0
  9
$PUCSYDIR
 10
0.0
 20
1.0
 30
0.0
  9
$USERI1
 70
     0
  9
$USERI2
 70
     0
  9
$USERI3
 70
     0
  9
$USERI4
 70
     0
  9
$USERI5
 70
     0
  9
$USERR1
 40
0.0
  9
$USERR2
 40
0.0
  9
$USERR3
 40
0.0
  9
$USERR4
 40
0.0
  9
$USERR5
 40
0.0
  9
$WORLDVIEW
 70
     1
  9
$SHADEDGE
 70
     3
  9
$SHADEDIF
 70
    70
  9
$TILEMODE
 70
     1
  9
$MAXACTVP
 70
    16
  9
$PINSBASE
 10
0.0
 20
0.0
 30
0.0
  9
$PLIMCHECK
 70
     0
  9
$PEXTMIN
 10
1.000000E+20
 20
1.000000E+20
 30
1.000000E+20
  9
$PEXTMAX
 10
-1.000000E+20
 20
-1.000000E+20
 30
-1.000000E+20
  9
$PLIMMIN
 10
0.0
 20
0.0
  9
$PLIMMAX
 10
12.0
 20
9.0
  9
$UNITMODE
 70
     0
  9
$VISRETAIN
 70
     0
  9
$PLINEGEN
 70
     0
  9
$PSLTSCALE
 70
     0
  9
$TREEDEPTH
 70
  3020
  9
$DWGCODEPAGE
  3
iso8859-1
  0
ENDSEC
  0
SECTION
  2
TABLES
  0
TABLE
  2
VPORT
 70
     1
  0
VPORT
  2
*ACTIVE
 70
     0
 10
0.0
 20
0.0
 11
1.0
 21
1.0
 12
107.230354
 22
88.344403
 13
0.0
 23
0.0
 14
1.0
 24
1.0
 15
10.0
 25
10.0
 16
0.0
 26
0.0
 36
1.0
 17
0.0
 27
0.0
 37
0.0
 40
14.85
 41
1.611024
 42
50.0
 43
0.0
 44
0.0
 50
0.0
 51
0.0
 71
     0
 72
   100
 73
     1
 74
     0
 75
     0
 76
     0
 77
     0
 78
     2
  0
ENDTAB
  0
TABLE
  2
LTYPE
 70
     1
  0
LTYPE
  2
CONTINUOUS
 70
    64
  3
Solid line
 72
    65
 73
     0
 40
0.0
  0
ENDTAB
  0
TABLE
  2
LAYER
 70
     2
  0
LAYER
  2
0
 70
    64
 62
     7
  6
CONTINUOUS
  0
LAYER
  2
MESURA
 70
    64
 62
     7
  6
CONTINUOUS
  0
ENDTAB
  0
TABLE
  2
STYLE
 70
     2
  0
STYLE
  2
STANDARD
 70
     0
 40
0.0
 41
1.0
 50
0.0
 71
     0
 42
0.1
  3
txt
  4

  0
STYLE
  2
ROMANC
 70
    64
 40
0.0
 41
1.0
 50
0.0
 71
     0
 42
0.1
  3
romanc
  4

  0
ENDTAB
  0
TABLE
  2
VIEW
 70
     0
  0
ENDTAB
  0
TABLE
  2
UCS
 70
     0
  0
ENDTAB
  0
TABLE
  2
APPID
 70
     1
  0
APPID
  2
ACAD
 70
    64
  0
ENDTAB
  0
TABLE
  2
DIMSTYLE
 70
     0
  0
ENDTAB
  0
ENDSEC
  0
SECTION
  2
BLOCKS
  0
BLOCK
  8
0
  2
*X0
 70
    65
 10
0.0
 20
0.0
 30
0.0
  3
*X
  0
LINE
  8
0
 62
     0
 10
101.004483
 20
87.481065
 30
0.0
 11
101.304483
 21
87.781065
 31
0.0
  0
LINE
  8
0
 62
     0
 10
100.916094
 20
87.481065
 30
0.0
 11
101.216094
 21
87.781065
 31
0.0
  0
LINE
  8
0
 62
     0
 10
100.830321
 20
87.483681
 30
0.0
 11
101.127706
 21
87.781065
 31
0.0
  0
LINE
  8
0
 62
     0
 10
100.830321
 20
87.572069
 30
0.0
 11
101.039318
 21
87.781065
 31
0.0
  0
LINE
  8
0
 62
     0
 10
100.830321
 20
87.660457
 30
0.0
 11
100.950929
 21
87.781065
 31
0.0
  0
LINE
  8
0
 62
     0
 10
100.830321
 20
87.748846
 30
0.0
 11
100.862541
 21
87.781065
 31
0.0
  0
LINE
  8
0
 62
     0
 10
101.092871
 20
87.481065
 30
0.0
 11
101.392871
 21
87.781065
 31
0.0
  0
LINE
  8
0
 62
     0
 10
101.181259
 20
87.481065
 30
0.0
 11
101.481259
 21
87.781065
 31
0.0
  0
LINE
  8
0
 62
     0
 10
101.269648
 20
87.481065
 30
0.0
 11
101.569648
 21
87.781065
 31
0.0
  0
LINE
  8
0
 62
     0
 10
101.358036
 20
87.481065
 30
0.0
 11
101.613015
 21
87.736045
 31
0.0
  0
LINE
  8
0
 62
     0
 10
101.446424
 20
87.481065
 30
0.0
 11
101.557823
 21
87.592465
 31
0.0
  0
ENDBLK
  8
0
  0
ENDSEC
  0
SECTION
  2
ENTITIES
  0
LINE
  8
0
 10
105.768503
 20
80.919403
 30
0.0
 11
105.768503
 21
95.769403
 31
0.0
  0
LINE
  8
0
 10
95.268503
 20
95.769403
 30
0.0
 11
95.268503
 21
80.919403
 31
0.0
  0
LINE
  8
0
 10
95.268503
 20
80.919403
 30
0.0
 11
105.768503
 21
80.919403
 31
0.0
  0
TEXT
  8
0
 10
102.525275
 20
81.78594
 30
0.0
 40
0.15
  1
B-24/10/94-3Brig
  7
ROMANC
  0
TEXT
  8
0
 10
97.798476
 20
93.365262
 30
0.0
 40
0.3
  1
TIPUS   T679A
  7
ROMANC
  0
TEXT
  8
0
 10
97.78309
 20
91.589872
 30
0.0
 40
0.3
  1
P = 99.5 dm
  7
ROMANC
  0
TEXT
  8
0
 10
97.785918
 20
92.26337
 30
0.0
 40
0.3
  1
S = 679  dm
  7
ROMANC
  0
LINE
  8
MESURA
  6
BYBLOCK
 62
     0
 10
100.730321
 20
87.853597
 30
0.0
 11
100.930321
 21
88.053597
 31
0.0
  0
LINE
  8
0
 10
100.830321
 20
87.953597
 30
0.0
 11
101.630321
 21
87.953597
 31
0.0
  0
LINE
  8
0
 10
101.515002
 20
87.481065
 30
0.0
 11
100.830321
 21
87.481065
 31
0.0
  0
LINE
  8
0
 10
100.830321
 20
87.781065
 30
0.0
 11
101.630321
 21
87.781065
 31
0.0
  0
LINE
  8
0
 10
99.992964
 20
89.938297
 30
0.0
 11
102.346771
 21
89.938297
 31
0.0
  0
LINE
  8
0
 10
98.293502
 20
86.698619
 30
0.0
 11
101.692964
 21
86.698619
 31
0.0
  0
TEXT
  8
0
 10
97.798476
 20
92.879548
 30
0.0
 40
0.3
  1
ESCALA  1:50
  7
ROMANC
  0
LINE
  8
0
 10
105.768503
 20
95.769403
 30
0.0
 11
95.268503
 21
95.769403
 31
0.0
  0
TEXT
  8
0
 10
100.363092
 20
87.609879
 30
0.0
 40
0.1
  1
0.3
  7
ROMANC
  0
TEXT
  8
0
 10
99.992856
 20
87.101267
 30
0.0
 40
0.1
  1
3.05
  7
ROMANC
  0
LINE
  8
MESURA
  6
BYBLOCK
 62
     0
 10
100.55779
 20
87.381065
 30
0.0
 11
100.75779
 21
87.581065
 31
0.0
  0
LINE
  8
MESURA
  6
BYBLOCK
 62
     0
 10
100.55779
 20
87.681065
 30
0.0
 11
100.75779
 21
87.881065
 31
0.0
  0
LINE
  8
MESURA
  6
BYBLOCK
 62
     0
 10
98.202997
 20
86.608115
 30
0.0
 11
98.402997
 21
86.808115
 31
0.0
  0
LINE
  8
0
 10
100.830321
 20
87.781065
 30
0.0
 11
100.830321
 21
87.953597
 31
0.0
  0
LINE
  8
0
 10
100.830321
 20
87.781065
 30
0.0
 11
100.65779
 21
87.781065
 31
0.0
  0
LINE
  8
0
 10
100.65779
 20
87.781065
 30
0.0
 11
100.65779
 21
87.481065
 31
0.0
  0
LINE
  8
0
 10
98.292964
 20
88.238297
 30
0.0
 11
98.292964
 21
86.698619
 31
0.0
  0
LINE
  8
0
 10
100.830321
 20
87.781065
 30
0.0
 11
100.830321
 21
87.481065
 31
0.0
  0
TEXT
  8
0
 10
101.140689
 20
88.076135
 30
0.0
 40
0.1
  1
0.8
  7
ROMANC
  0
TEXT
  8
0
 10
102.514444
 20
88.814375
 30
0.0
 40
0.1
  1
2.5
  7
ROMANC
  0
LINE
  8
MESURA
  6
BYBLOCK
 62
     0
 10
101.530321
 20
87.853597
 30
0.0
 11
101.730321
 21
88.053597
 31
0.0
  0
LINE
  8
MESURA
  6
BYBLOCK
 62
     0
 10
102.246771
 20
89.838297
 30
0.0
 11
102.446771
 21
90.038297
 31
0.0
  0
LINE
  8
MESURA
  6
BYBLOCK
 62
     0
 10
102.246771
 20
87.381065
 30
0.0
 11
102.446771
 21
87.581065
 31
0.0
  0
LINE
  8
MESURA
  6
BYBLOCK
 62
     0
 10
101.592964
 20
86.598619
 30
0.0
 11
101.792964
 21
86.798619
 31
0.0
  0
LINE
  8
0
 10
101.630321
 20
87.781065
 30
0.0
 11
101.630321
 21
87.953597
 31
0.0
  0
LINE
  8
0
 10
101.692964
 20
88.238297
 30
0.0
 11
101.692964
 21
86.698619
 31
0.0
  0
LINE
  8
0
 10
101.630321
 20
87.781065
 30
0.0
 11
101.515002
 21
87.481065
 31
0.0
  0
LINE
  8
0
 10
101.515002
 20
87.481065
 30
0.0
 11
102.346771
 21
87.481065
 31
0.0
  0
LINE
  8
0
 10
102.346771
 20
87.481065
 30
0.0
 11
102.346771
 21
89.938297
 31
0.0
  0
TEXT
  8
0
 10
101.29375
 20
92.569286
 30
0.0
 40
0.1
  1
2
  7
ROMANC
  0
LINE
  8
0
 10
98.470925
 20
87.052189
 30
0.0
 11
101.515002
 21
87.052189
 31
0.0
  0
LINE
  8
MESURA
  6
BYBLOCK
 62
     0
 10
98.388034
 20
86.969299
 30
0.0
 11
98.588034
 21
87.169299
 31
0.0
  0
TEXT
  8
0
 10
99.992856
 20
86.757033
 30
0.0
 40
0.1
  1
3.4
  7
ROMANC
  0
LINE
  8
0
 10
98.470925
 20
87.481065
 30
0.0
 11
98.470925
 21
87.052189
 31
0.0
  0
LINE
  8
MESURA
  6
BYBLOCK
 62
     0
 10
101.432111
 20
86.969299
 30
0.0
 11
101.632111
 21
87.169299
 31
0.0
  0
LINE
  8
0
 10
101.515002
 20
87.481065
 30
0.0
 11
101.515002
 21
87.052189
 31
0.0
  0
LINE
  8
0
 62
     0
 10
101.004483
 20
87.481065
 30
0.0
 11
101.304483
 21
87.781065
 31
0.0
  0
LINE
  8
0
 62
     0
 10
100.916094
 20
87.481065
 30
0.0
 11
101.216094
 21
87.781065
 31
0.0
  0
LINE
  8
0
 62
     0
 10
100.830321
 20
87.483681
 30
0.0
 11
101.127706
 21
87.781065
 31
0.0
  0
LINE
  8
0
 62
     0
 10
100.830321
 20
87.572069
 30
0.0
 11
101.039318
 21
87.781065
 31
0.0
  0
LINE
  8
0
 62
     0
 10
100.830321
 20
87.660457
 30
0.0
 11
100.950929
 21
87.781065
 31
0.0
  0
LINE
  8
0
 62
     0
 10
100.830321
 20
87.748846
 30
0.0
 11
100.862541
 21
87.781065
 31
0.0
  0
LINE
  8
0
 62
     0
 10
101.092871
 20
87.481065
 30
0.0
 11
101.392871
 21
87.781065
 31
0.0
  0
LINE
  8
0
 62
     0
 10
101.181259
 20
87.481065
 30
0.0
 11
101.481259
 21
87.781065
 31
0.0
  0
LINE
  8
0
 62
     0
 10
101.269648
 20
87.481065
 30
0.0
 11
101.569648
 21
87.781065
 31
0.0
  0
LINE
  8
0
 62
     0
 10
101.358036
 20
87.481065
 30
0.0
 11
101.613015
 21
87.736045
 31
0.0
  0
LINE
  8
0
 62
     0
 10
101.446424
 20
87.481065
 30
0.0
 11
101.557823
 21
87.592465
 31
0.0
  0
ARC
  8
0
 10
99.992964
 20
88.238297
 30
0.0
 40
1.7
 50
333.549139
 51
206.450861
  0
LINE
  8
0
 10
98.470925
 20
87.481065
 30
0.0
 11
101.515002
 21
87.481065
 31
0.0
  0
ARC
  8
0
 10
99.992964
 20
88.238297
 30
0.0
 40
1.69
 50
333.758947
 51
206.241053
  0
LINE
  8
0
 10
98.477132
 20
87.491065
 30
0.0
 11
101.508795
 21
87.491065
 31
0.0
  0
ARC
  8
0
 10
99.992964
 20
88.238297
 30
0.0
 40
1.71
 50
333.341409
 51
206.658591
  0
LINE
  8
0
 10
98.464744
 20
87.471065
 30
0.0
 11
101.521184
 21
87.471065
 31
0.0
  0
ENDSEC
  0
EOF
