  0
SECTION
  2
HEADER
  9
$ACADVER
  1
AC1009
  9
$INSBASE
 10
0.0
 20
0.0
 30
0.0
  9
$EXTMIN
 10
281.396000
 20
29.897000
 30
-2147483.648000
  9
$EXTMAX
 10
291.896000
 20
44.747000
 30
0.000000
  9
$LIMMIN
 10
280.396000
 20
28.897000
  9
$LIMMAX
 10
292.896000
 20
43.747000
  9
$ORTHOMODE
 70
     0
  9
$REGENMODE
 70
     1
  9
$FILLMODE
 70
     1
  9
$QTEXTMODE
 70
     0
  9
$MIRRTEXT
 70
     1
  9
$DRAGMODE
 70
     2
  9
$LTSCALE
 40
1.0
  9
$OSMODE
 70
     0
  9
$ATTMODE
 70
     1
  9
$TEXTSIZE
 40
0.2
  9
$TRACEWID
 40
0.05
  9
$TEXTSTYLE
  7
STANDARD
  9
$CLAYER
  8
0
  9
$CELTYPE
  6
BYLAYER
  9
$CECOLOR
 62
   256
  9
$DIMSCALE
 40
1.0
  9
$DIMASZ
 40
0.18
  9
$DIMEXO
 40
0.0625
  9
$DIMDLI
 40
0.38
  9
$DIMRND
 40
0.0
  9
$DIMDLE
 40
0.0
  9
$DIMEXE
 40
0.18
  9
$DIMTP
 40
0.0
  9
$DIMTM
 40
0.0
  9
$DIMTXT
 40
0.18
  9
$DIMCEN
 40
0.09
  9
$DIMTSZ
 40
0.0
  9
$DIMTOL
 70
     0
  9
$DIMLIM
 70
     0
  9
$DIMTIH
 70
     1
  9
$DIMTOH
 70
     1
  9
$DIMSE1
 70
     0
  9
$DIMSE2
 70
     0
  9
$DIMTAD
 70
     0
  9
$DIMZIN
 70
     0
  9
$DIMBLK
  1

  9
$DIMASO
 70
     1
  9
$DIMSHO
 70
     1
  9
$DIMPOST
  1

  9
$DIMAPOST
  1

  9
$DIMALT
 70
     0
  9
$DIMALTD
 70
     2
  9
$DIMALTF
 40
25.4
  9
$DIMLFAC
 40
1.0
  9
$DIMTOFL
 70
     0
  9
$DIMTVP
 40
0.0
  9
$DIMTIX
 70
     0
  9
$DIMSOXD
 70
     0
  9
$DIMSAH
 70
     0
  9
$DIMBLK1
  1

  9
$DIMBLK2
  1

  9
$DIMSTYLE
  2
*UNNAMED
  9
$DIMCLRD
 70
     0
  9
$DIMCLRE
 70
     0
  9
$DIMCLRT
 70
     0
  9
$DIMTFAC
 40
1.0
  9
$DIMGAP
 40
0.09
  9
$LUNITS
 70
     2
  9
$LUPREC
 70
     4
  9
$AXISMODE
 70
     0
  9
$AXISUNIT
 10
0.0
 20
0.0
  9
$SKETCHINC
 40
0.1
  9
$FILLETRAD
 40
0.0
  9
$AUNITS
 70
     0
  9
$AUPREC
 70
     0
  9
$MENU
  1
acad
  9
$ELEVATION
 40
0.0
  9
$PELEVATION
 40
0.0
  9
$THICKNESS
 40
0.0
  9
$LIMCHECK
 70
     0
  9
$BLIPMODE
 70
     1
  9
$CHAMFERA
 40
0.0
  9
$CHAMFERB
 40
0.0
  9
$SKPOLY
 70
     0
  9
$TDCREATE
 40
2448315.373408102
  9
$TDUPDATE
 40
2448315.373408102
  9
$TDINDWG
 40
0.0000000000
  9
$TDUSRTIMER
 40
0.0000000000
  9
$USRTIMER
 70
     1
  9
$ANGBASE
 50
0.0
  9
$ANGDIR
 70
     0
  9
$PDMODE
 70
     0
  9
$PDSIZE
 40
0.0
  9
$PLINEWID
 40
0.0
  9
$COORDS
 70
     0
  9
$SPLFRAME
 70
     0
  9
$SPLINETYPE
 70
     6
  9
$SPLINESEGS
 70
     8
  9
$ATTDIA
 70
     0
  9
$ATTREQ
 70
     1
  9
$HANDLING
 70
     0
  9
$HANDSEED
  5
0
  9
$SURFTAB1
 70
     6
  9
$SURFTAB2
 70
     6
  9
$SURFTYPE
 70
     6
  9
$SURFU
 70
     6
  9
$SURFV
 70
     6
  9
$UCSNAME
  2

  9
$UCSORG
 10
0.0
 20
0.0
 30
0.0
  9
$UCSXDIR
 10
1.0
 20
0.0
 30
0.0
  9
$UCSYDIR
 10
0.0
 20
1.0
 30
0.0
  9
$PUCSNAME
  2

  9
$PUCSORG
 10
0.0
 20
0.0
 30
0.0
  9
$PUCSXDIR
 10
1.0
 20
0.0
 30
0.0
  9
$PUCSYDIR
 10
0.0
 20
1.0
 30
0.0
  9
$USERI1
 70
     0
  9
$USERI2
 70
     0
  9
$USERI3
 70
     0
  9
$USERI4
 70
     0
  9
$USERI5
 70
     0
  9
$USERR1
 40
0.0
  9
$USERR2
 40
0.0
  9
$USERR3
 40
0.0
  9
$USERR4
 40
0.0
  9
$USERR5
 40
0.0
  9
$WORLDVIEW
 70
     1
  9
$SHADEDGE
 70
     3
  9
$SHADEDIF
 70
    70
  9
$TILEMODE
 70
     1
  9
$MAXACTVP
 70
    16
  9
$PINSBASE
 10
0.0
 20
0.0
 30
0.0
  9
$PLIMCHECK
 70
     0
  9
$PEXTMIN
 10
1.000000E+20
 20
1.000000E+20
 30
1.000000E+20
  9
$PEXTMAX
 10
-1.000000E+20
 20
-1.000000E+20
 30
-1.000000E+20
  9
$PLIMMIN
 10
0.0
 20
0.0
  9
$PLIMMAX
 10
12.0
 20
9.0
  9
$UNITMODE
 70
     0
  9
$VISRETAIN
 70
     0
  0
ENDSEC
  0
SECTION
  2
TABLES
  0
TABLE
  2
LTYPE
 70
    1
  0
LTYPE
  2
CONTINUOUS
 70
    64
3
Solid line
 72
    65
 73
0
 40
0.000000
  0
ENDTAB
  0
TABLE
  2
LAYER
 70
    8
  0
LAYER
  2
0
 70
    64
 62
7
  6
CONTINUOUS
  0
LAYER
  2
1
 70
    64
 62
7
  6
CONTINUOUS
  0
LAYER
  2
7
 70
    64
 62
7
  6
CONTINUOUS
  0
LAYER
  2
8
 70
    64
 62
7
  6
CONTINUOUS
  0
LAYER
  2
9
 70
    64
 62
7
  6
CONTINUOUS
  0
LAYER
  2
22
 70
    64
 62
7
  6
CONTINUOUS
  0
LAYER
  2
25
 70
    64
 62
7
  6
CONTINUOUS
  0
LAYER
  2
0
 70
    64
 62
7
  6
CONTINUOUS
  0
ENDTAB
  0
TABLE
  2
STYLE
 70
    1
  0
STYLE
  2
ROMANC
70
     0
 40
0.0
 41
1.0
 50
0.0
 71
     0
 42
0.2
  3
ROMANC
  4

  0
ENDTAB
  0
ENDSEC
  0
SECTION
  2
BLOCKS
  0
ENDSEC
  0
SECTION
  2
ENTITIES
  0
TEXT
  8
0
  6
CONTINUOUS
 40
0.100000
 10
286.909000
 20
41.324000
  1
2
  7
ROMANC
  0
TEXT
  8
0
  6
CONTINUOUS
 40
0.300000
 10
283.926000
 20
41.768000
  1
ESCALA  1:50
  7
ROMANC
  0
POLYLINE
  8
0
  6
CONTINUOUS
 66
     1
 70
     1
  0
VERTEX
  8
0
  6
CONTINUOUS
 10
281.396000
 20
44.747000
  0
VERTEX
  8
0
  6
CONTINUOUS
 10
291.896000
 20
44.747000
  0
VERTEX
  8
0
  6
CONTINUOUS
 10
291.896000
 20
29.897000
  0
VERTEX
  8
0
  6
CONTINUOUS
 10
281.396000
 20
29.897000
  0
SEQEND
  8
0
  0
TEXT
  8
0
  6
CONTINUOUS
 40
0.300000
 10
283.926000
 20
42.381000
  1
TIPUS   T651
  7
ROMANC
  0
ARC
  8
1
  6
CONTINUOUS
 10
286.600000
 20
34.312000
 40
1.500000
 50
0.000000
 51
180.000000
  0
LINE
  8
1
  6
CONTINUOUS
 10
285.850000
 20
33.562000
 11
285.100000
 21
33.562000
  0
TEXT
  8
0
  6
CONTINUOUS
 40
0.300000
 10
283.922000
 20
40.529000
  1
P = 101 dm
  7
ROMANC
  0
TEXT
  8
0
  6
CONTINUOUS
 40
0.300000
 10
283.945000
 20
41.099000
  1
S = 655 dm
  7
ROMANC
  0
LINE
  8
1
  6
CONTINUOUS
 10
285.100000
 20
33.562000
 11
285.100000
 21
34.312000
  0
LINE
  8
1
  6
CONTINUOUS
 10
285.850000
 20
33.132000
 11
285.850000
 21
33.562000
  0
LINE
  8
1
  6
CONTINUOUS
 10
287.350000
 20
33.562000
 11
287.350000
 21
33.132000
  0
LINE
  8
1
  6
CONTINUOUS
 10
288.100000
 20
33.562000
 11
287.350000
 21
33.562000
  0
TEXT
  8
1
  6
CONTINUOUS
 40
0.075000
 10
285.356000
 20
32.782000
  1
0.75
  7
ROMANC
  0
LINE
  8
1
  6
CONTINUOUS
 10
285.318000
 20
32.820000
 11
285.100000
 21
32.820000
  0
LINE
  8
1
  6
CONTINUOUS
 10
285.630000
 20
32.820000
 11
285.850000
 21
32.820000
  0
LINE
  8
1
  6
CONTINUOUS
 10
285.062000
 20
32.801000
 11
285.138000
 21
32.839000
  0
LINE
  8
1
  6
CONTINUOUS
 10
285.888000
 20
32.839000
 11
285.812000
 21
32.801000
  0
LINE
  8
1
  6
CONTINUOUS
 10
285.100000
 20
33.524000
 11
285.100000
 21
32.782000
  0
LINE
  8
1
  6
CONTINUOUS
 10
285.850000
 20
33.094000
 11
285.850000
 21
32.782000
  0
TEXT
  8
1
  6
CONTINUOUS
 40
0.075000
 10
286.490000
 20
32.782000
  1
1.50
  7
ROMANC
  0
LINE
  8
1
  6
CONTINUOUS
 10
286.452000
 20
32.820000
 11
285.850000
 21
32.820000
  0
LINE
  8
1
  6
CONTINUOUS
 10
286.747000
 20
32.820000
 11
287.350000
 21
32.820000
  0
LINE
  8
1
  6
CONTINUOUS
 10
285.812000
 20
32.801000
 11
285.888000
 21
32.839000
  0
LINE
  8
1
  6
CONTINUOUS
 10
287.388000
 20
32.839000
 11
287.312000
 21
32.801000
  0
LINE
  8
1
  6
CONTINUOUS
 10
287.350000
 20
33.094000
 11
287.350000
 21
32.782000
  0
TEXT
  8
1
  6
CONTINUOUS
 40
0.075000
 10
287.606000
 20
32.782000
  1
0.75
  7
ROMANC
  0
LINE
  8
1
  6
CONTINUOUS
 10
287.568000
 20
32.820000
 11
287.350000
 21
32.820000
  0
LINE
  8
1
  6
CONTINUOUS
 10
287.880000
 20
32.820000
 11
288.100000
 21
32.820000
  0
LINE
  8
1
  6
CONTINUOUS
 10
287.312000
 20
32.801000
 11
287.388000
 21
32.839000
  0
LINE
  8
1
  6
CONTINUOUS
 10
288.138000
 20
32.839000
 11
288.062000
 21
32.801000
  0
LINE
  8
1
  6
CONTINUOUS
 10
288.100000
 20
33.524000
 11
288.100000
 21
32.782000
  0
TEXT
  8
1
  6
CONTINUOUS
 40
0.075000
 10
286.481000
 20
32.516000
  1
3.00
  7
ROMANC
  0
LINE
  8
1
  6
CONTINUOUS
 10
286.443000
 20
32.553000
 11
285.100000
 21
32.553000
  0
LINE
  8
1
  6
CONTINUOUS
 10
286.755000
 20
32.553000
 11
288.100000
 21
32.553000
  0
LINE
  8
1
  6
CONTINUOUS
 10
285.062000
 20
32.534000
 11
285.138000
 21
32.572000
  0
LINE
  8
1
  6
CONTINUOUS
 10
288.138000
 20
32.572000
 11
288.062000
 21
32.534000
  0
LINE
  8
1
  6
CONTINUOUS
 10
285.100000
 20
33.524000
 11
285.100000
 21
32.515000
  0
LINE
  8
1
  6
CONTINUOUS
 10
288.100000
 20
33.524000
 11
288.100000
 21
32.515000
  0
ARC
  8
1
  6
CONTINUOUS
 10
286.600000
 20
35.415750
 40
2.403750
 50
251.819447
 51
288.180556
  0
TEXT
  8
1
  6
CONTINUOUS
 40
0.075000
 10
288.386000
 20
33.279000
  1
0.12
 50
90.000000
  7
ROMANC
  0
LINE
  8
1
  6
CONTINUOUS
 10
288.348000
 20
32.862000
 11
288.348000
 21
33.012000
  0
LINE
  8
1
  6
CONTINUOUS
 10
288.348000
 20
33.241000
 11
288.348000
 21
33.132000
  0
LINE
  8
1
  6
CONTINUOUS
 10
288.329000
 20
33.050000
 11
288.367000
 21
32.974000
  0
LINE
  8
1
  6
CONTINUOUS
 10
288.367000
 20
33.094000
 11
288.329000
 21
33.170000
  0
LINE
  8
1
  6
CONTINUOUS
 10
286.638000
 20
33.012000
 11
288.386000
 21
33.012000
  0
LINE
  8
1
  6
CONTINUOUS
 10
287.388000
 20
33.132000
 11
288.386000
 21
33.132000
  0
LINE
  8
1
  6
CONTINUOUS
 10
288.100000
 20
34.312000
 11
288.100000
 21
33.562000
  0
TEXT
  8
1
  6
CONTINUOUS
 40
0.075000
 10
288.618000
 20
33.225000
  1
0.43
 50
90.000000
  7
ROMANC
  0
LINE
  8
1
  6
CONTINUOUS
 10
288.580000
 20
32.982000
 11
288.580000
 21
33.132000
  0
LINE
  8
1
  6
CONTINUOUS
 10
288.580000
 20
33.712000
 11
288.580000
 21
33.562000
  0
LINE
  8
1
  6
CONTINUOUS
 10
288.561000
 20
33.170000
 11
288.599000
 21
33.094000
  0
LINE
  8
1
  6
CONTINUOUS
 10
288.599000
 20
33.524000
 11
288.561000
 21
33.600000
  0
LINE
  8
1
  6
CONTINUOUS
 10
287.388000
 20
33.132000
 11
288.618000
 21
33.132000
  0
LINE
  8
1
  6
CONTINUOUS
 10
288.138000
 20
33.562000
 11
288.618000
 21
33.562000
  0
TEXT
  8
1
  6
CONTINUOUS
 40
0.075000
 10
288.618000
 20
33.818000
  1
0.75
 50
90.000000
  7
ROMANC
  0
LINE
  8
1
  6
CONTINUOUS
 10
288.580000
 20
33.780000
 11
288.580000
 21
33.562000
  0
LINE
  8
1
  6
CONTINUOUS
 10
288.580000
 20
34.092000
 11
288.580000
 21
34.312000
  0
LINE
  8
1
  6
CONTINUOUS
 10
288.599000
 20
33.524000
 11
288.561000
 21
33.600000
  0
LINE
  8
1
  6
CONTINUOUS
 10
288.561000
 20
34.350000
 11
288.599000
 21
34.274000
  0
LINE
  8
1
  6
CONTINUOUS
 10
288.138000
 20
33.562000
 11
288.618000
 21
33.562000
  0
LINE
  8
1
  6
CONTINUOUS
 10
288.138000
 20
34.312000
 11
288.618000
 21
34.312000
  0
TEXT
  8
1
  6
CONTINUOUS
 40
0.075000
 10
288.618000
 20
34.952000
  1
1.50
 50
90.000000
  7
ROMANC
  0
LINE
  8
1
  6
CONTINUOUS
 10
288.580000
 20
34.914000
 11
288.580000
 21
34.312000
  0
LINE
  8
1
  6
CONTINUOUS
 10
288.580000
 20
35.209000
 11
288.580000
 21
35.812000
  0
LINE
  8
1
  6
CONTINUOUS
 10
288.599000
 20
34.274000
 11
288.561000
 21
34.350000
  0
LINE
  8
1
  6
CONTINUOUS
 10
288.561000
 20
35.850000
 11
288.599000
 21
35.774000
  0
LINE
  8
1
  6
CONTINUOUS
 10
286.638000
 20
35.812000
 11
288.618000
 21
35.812000
  0
TEXT
  8
1
  6
CONTINUOUS
 40
0.075000
 10
288.878000
 20
34.293000
  1
2.80
 50
90.000000
  7
ROMANC
  0
LINE
  8
1
  6
CONTINUOUS
 10
288.841000
 20
34.255000
 11
288.841000
 21
33.012000
  0
LINE
  8
1
  6
CONTINUOUS
 10
288.841000
 20
34.567000
 11
288.841000
 21
35.812000
  0
LINE
  8
1
  6
CONTINUOUS
 10
288.860000
 20
32.974000
 11
288.822000
 21
33.050000
  0
LINE
  8
1
  6
CONTINUOUS
 10
288.822000
 20
35.850000
 11
288.860000
 21
35.774000
  0
LINE
  8
1
  6
CONTINUOUS
 10
286.638000
 20
33.012000
 11
288.879000
 21
33.012000
  0
LINE
  8
1
  6
CONTINUOUS
 10
286.638000
 20
35.812000
 11
288.879000
 21
35.812000
  0
ARC
  8
1
  6
CONTINUOUS
 10
286.600000
 20
34.312000
 40
1.510000
 50
0.000000
 51
180.000000
  0
ARC
  8
1
  6
CONTINUOUS
 10
286.600000
 20
34.312000
 40
1.520000
 50
0.000000
 51
180.000000
  0
LINE
  8
1
  6
CONTINUOUS
 10
288.110000
 20
34.312000
 11
288.110000
 21
33.552000
  0
LINE
  8
1
  6
CONTINUOUS
 10
288.120000
 20
34.312000
 11
288.120000
 21
33.542000
  0
LINE
  8
1
  6
CONTINUOUS
 10
288.110000
 20
33.552000
 11
287.360000
 21
33.552000
  0
LINE
  8
1
  6
CONTINUOUS
 10
288.120000
 20
33.542000
 11
287.370000
 21
33.542000
  0
LINE
  8
1
  6
CONTINUOUS
 10
287.360000
 20
33.552000
 11
287.360000
 21
33.125000
  0
LINE
  8
1
  6
CONTINUOUS
 10
287.370000
 20
33.542000
 11
287.370000
 21
33.118000
  0
ARC
  8
1
  6
CONTINUOUS
 10
286.600000
 20
35.415750
 40
2.413750
 50
251.647469
 51
288.352531
  0
ARC
  8
1
  6
CONTINUOUS
 10
286.600000
 20
35.415750
 40
2.423750
 50
251.476744
 51
288.523256
  0
LINE
  8
1
  6
CONTINUOUS
 10
285.840000
 20
33.125000
 11
285.840000
 21
33.552000
  0
LINE
  8
1
  6
CONTINUOUS
 10
285.830000
 20
33.118000
 11
285.830000
 21
33.542000
  0
LINE
  8
1
  6
CONTINUOUS
 10
285.840000
 20
33.552000
 11
285.090000
 21
33.552000
  0
LINE
  8
1
  6
CONTINUOUS
 10
285.830000
 20
33.542000
 11
285.080000
 21
33.542000
  0
LINE
  8
1
  6
CONTINUOUS
 10
285.090000
 20
33.552000
 11
285.090000
 21
34.312000
  0
LINE
  8
1
  6
CONTINUOUS
 10
285.080000
 20
33.542000
 11
285.080000
 21
34.312000
  0
ENDSEC
  0
EOF
