  0
SECTION
  2
HEADER
  9
$ACADVER
  1
AC1009
  9
$INSBASE
 10
0.0
 20
0.0
 30
0.0
  9
$EXTMIN
 10
281.396000
 20
29.897000
 30
-2147483.648000
  9
$EXTMAX
 10
291.896000
 20
44.747000
 30
0.000000
  9
$LIMMIN
 10
280.396000
 20
28.897000
  9
$LIMMAX
 10
292.896000
 20
43.747000
  9
$ORTHOMODE
 70
     0
  9
$REGENMODE
 70
     1
  9
$FILLMODE
 70
     1
  9
$QTEXTMODE
 70
     0
  9
$MIRRTEXT
 70
     1
  9
$DRAGMODE
 70
     2
  9
$LTSCALE
 40
1.0
  9
$OSMODE
 70
     0
  9
$ATTMODE
 70
     1
  9
$TEXTSIZE
 40
0.2
  9
$TRACEWID
 40
0.05
  9
$TEXTSTYLE
  7
STANDARD
  9
$CLAYER
  8
0
  9
$CELTYPE
  6
BYLAYER
  9
$CECOLOR
 62
   256
  9
$DIMSCALE
 40
1.0
  9
$DIMASZ
 40
0.18
  9
$DIMEXO
 40
0.0625
  9
$DIMDLI
 40
0.38
  9
$DIMRND
 40
0.0
  9
$DIMDLE
 40
0.0
  9
$DIMEXE
 40
0.18
  9
$DIMTP
 40
0.0
  9
$DIMTM
 40
0.0
  9
$DIMTXT
 40
0.18
  9
$DIMCEN
 40
0.09
  9
$DIMTSZ
 40
0.0
  9
$DIMTOL
 70
     0
  9
$DIMLIM
 70
     0
  9
$DIMTIH
 70
     1
  9
$DIMTOH
 70
     1
  9
$DIMSE1
 70
     0
  9
$DIMSE2
 70
     0
  9
$DIMTAD
 70
     0
  9
$DIMZIN
 70
     0
  9
$DIMBLK
  1

  9
$DIMASO
 70
     1
  9
$DIMSHO
 70
     1
  9
$DIMPOST
  1

  9
$DIMAPOST
  1

  9
$DIMALT
 70
     0
  9
$DIMALTD
 70
     2
  9
$DIMALTF
 40
25.4
  9
$DIMLFAC
 40
1.0
  9
$DIMTOFL
 70
     0
  9
$DIMTVP
 40
0.0
  9
$DIMTIX
 70
     0
  9
$DIMSOXD
 70
     0
  9
$DIMSAH
 70
     0
  9
$DIMBLK1
  1

  9
$DIMBLK2
  1

  9
$DIMSTYLE
  2
*UNNAMED
  9
$DIMCLRD
 70
     0
  9
$DIMCLRE
 70
     0
  9
$DIMCLRT
 70
     0
  9
$DIMTFAC
 40
1.0
  9
$DIMGAP
 40
0.09
  9
$LUNITS
 70
     2
  9
$LUPREC
 70
     4
  9
$AXISMODE
 70
     0
  9
$AXISUNIT
 10
0.0
 20
0.0
  9
$SKETCHINC
 40
0.1
  9
$FILLETRAD
 40
0.0
  9
$AUNITS
 70
     0
  9
$AUPREC
 70
     0
  9
$MENU
  1
acad
  9
$ELEVATION
 40
0.0
  9
$PELEVATION
 40
0.0
  9
$THICKNESS
 40
0.0
  9
$LIMCHECK
 70
     0
  9
$BLIPMODE
 70
     1
  9
$CHAMFERA
 40
0.0
  9
$CHAMFERB
 40
0.0
  9
$SKPOLY
 70
     0
  9
$TDCREATE
 40
2448315.373408102
  9
$TDUPDATE
 40
2448315.373408102
  9
$TDINDWG
 40
0.0000000000
  9
$TDUSRTIMER
 40
0.0000000000
  9
$USRTIMER
 70
     1
  9
$ANGBASE
 50
0.0
  9
$ANGDIR
 70
     0
  9
$PDMODE
 70
     0
  9
$PDSIZE
 40
0.0
  9
$PLINEWID
 40
0.0
  9
$COORDS
 70
     0
  9
$SPLFRAME
 70
     0
  9
$SPLINETYPE
 70
     6
  9
$SPLINESEGS
 70
     8
  9
$ATTDIA
 70
     0
  9
$ATTREQ
 70
     1
  9
$HANDLING
 70
     0
  9
$HANDSEED
  5
0
  9
$SURFTAB1
 70
     6
  9
$SURFTAB2
 70
     6
  9
$SURFTYPE
 70
     6
  9
$SURFU
 70
     6
  9
$SURFV
 70
     6
  9
$UCSNAME
  2

  9
$UCSORG
 10
0.0
 20
0.0
 30
0.0
  9
$UCSXDIR
 10
1.0
 20
0.0
 30
0.0
  9
$UCSYDIR
 10
0.0
 20
1.0
 30
0.0
  9
$PUCSNAME
  2

  9
$PUCSORG
 10
0.0
 20
0.0
 30
0.0
  9
$PUCSXDIR
 10
1.0
 20
0.0
 30
0.0
  9
$PUCSYDIR
 10
0.0
 20
1.0
 30
0.0
  9
$USERI1
 70
     0
  9
$USERI2
 70
     0
  9
$USERI3
 70
     0
  9
$USERI4
 70
     0
  9
$USERI5
 70
     0
  9
$USERR1
 40
0.0
  9
$USERR2
 40
0.0
  9
$USERR3
 40
0.0
  9
$USERR4
 40
0.0
  9
$USERR5
 40
0.0
  9
$WORLDVIEW
 70
     1
  9
$SHADEDGE
 70
     3
  9
$SHADEDIF
 70
    70
  9
$TILEMODE
 70
     1
  9
$MAXACTVP
 70
    16
  9
$PINSBASE
 10
0.0
 20
0.0
 30
0.0
  9
$PLIMCHECK
 70
     0
  9
$PEXTMIN
 10
1.000000E+20
 20
1.000000E+20
 30
1.000000E+20
  9
$PEXTMAX
 10
-1.000000E+20
 20
-1.000000E+20
 30
-1.000000E+20
  9
$PLIMMIN
 10
0.0
 20
0.0
  9
$PLIMMAX
 10
12.0
 20
9.0
  9
$UNITMODE
 70
     0
  9
$VISRETAIN
 70
     0
  0
ENDSEC
  0
SECTION
  2
TABLES
  0
TABLE
  2
LTYPE
 70
    1
  0
LTYPE
  2
CONTINUOUS
 70
    64
3
Solid line
 72
    65
 73
0
 40
0.000000
  0
ENDTAB
  0
TABLE
  2
LAYER
 70
    8
  0
LAYER
  2
0
 70
    64
 62
7
  6
CONTINUOUS
  0
LAYER
  2
1
 70
    64
 62
7
  6
CONTINUOUS
  0
LAYER
  2
7
 70
    64
 62
7
  6
CONTINUOUS
  0
LAYER
  2
8
 70
    64
 62
7
  6
CONTINUOUS
  0
LAYER
  2
9
 70
    64
 62
7
  6
CONTINUOUS
  0
LAYER
  2
22
 70
    64
 62
7
  6
CONTINUOUS
  0
LAYER
  2
25
 70
    64
 62
7
  6
CONTINUOUS
  0
LAYER
  2
0
 70
    64
 62
7
  6
CONTINUOUS
  0
ENDTAB
  0
TABLE
  2
STYLE
 70
    1
  0
STYLE
  2
ROMANC
70
     0
 40
0.0
 41
1.0
 50
0.0
 71
     0
 42
0.2
  3
ROMANC
  4

  0
ENDTAB
  0
ENDSEC
  0
SECTION
  2
BLOCKS
  0
ENDSEC
  0
SECTION
  2
ENTITIES
  0
TEXT
  8
0
  6
CONTINUOUS
 40
0.100000
 10
286.909000
 20
41.324000
  1
2
  7
ROMANC
  0
TEXT
  8
0
  6
CONTINUOUS
 40
0.300000
 10
283.926000
 20
41.768000
  1
ESCALA  1:50
  7
ROMANC
  0
POLYLINE
  8
0
  6
CONTINUOUS
 66
     1
 70
     1
  0
VERTEX
  8
0
  6
CONTINUOUS
 10
281.396000
 20
44.747000
  0
VERTEX
  8
0
  6
CONTINUOUS
 10
291.896000
 20
44.747000
  0
VERTEX
  8
0
  6
CONTINUOUS
 10
291.896000
 20
29.897000
  0
VERTEX
  8
0
  6
CONTINUOUS
 10
281.396000
 20
29.897000
  0
SEQEND
  8
0
  0
TEXT
  8
0
  6
CONTINUOUS
 40
0.300000
 10
283.926000
 20
42.381000
  1
TIPUS   T60A
  7
ROMANC
  0
TEXT
  8
0
  6
CONTINUOUS
 40
0.300000
 10
283.945000
 20
41.099000
  1
S = 60 dm
  7
ROMANC
  0
TEXT
  8
0
  6
CONTINUOUS
 40
0.300000
 10
283.922000
 20
40.529000
  1
P = 29 dm
  7
ROMANC
  0
ARC
  8
1
  6
CONTINUOUS
 10
286.308000
 20
34.161000
 40
0.350000
 50
0.000000
 51
180.000000
  0
POLYLINE
  8
1
  6
CONTINUOUS
 66
     1
 70
     0
  0
VERTEX
  8
1
  6
CONTINUOUS
 10
285.958000
 20
34.161000
 42
0.015233
  0
VERTEX
  8
1
  6
CONTINUOUS
 10
285.960947
 20
34.063755
 42
0.015861
  0
VERTEX
  8
1
  6
CONTINUOUS
 10
285.969926
 20
33.966886
 42
0.016278
  0
VERTEX
  8
1
  6
CONTINUOUS
 10
285.984275
 20
33.875828
 42
0.018411
  0
VERTEX
  8
1
  6
CONTINUOUS
 10
286.004891
 20
33.786000
 42
0.019410
  0
VERTEX
  8
1
  6
CONTINUOUS
 10
286.029346
 20
33.707110
 42
0.023940
  0
VERTEX
  8
1
  6
CONTINUOUS
 10
286.060513
 20
33.630670
 42
0.025960
  0
VERTEX
  8
1
  6
CONTINUOUS
 10
286.093169
 20
33.568835
 42
0.034795
  0
VERTEX
  8
1
  6
CONTINUOUS
 10
286.133000
 20
33.511481
 42
0.038766
  0
VERTEX
  8
1
  6
CONTINUOUS
 10
286.171840
 20
33.470071
 42
0.053576
  0
VERTEX
  8
1
  6
CONTINUOUS
 10
286.217413
 20
33.436556
 42
0.059624
  0
VERTEX
  8
1
  6
CONTINUOUS
 10
286.261144
 20
33.417919
 42
0.070332
  0
VERTEX
  8
1
  6
CONTINUOUS
 10
286.308000
 20
33.411000
 42
0.070332
  0
VERTEX
  8
1
  6
CONTINUOUS
 10
286.354856
 20
33.417919
 42
0.059624
  0
VERTEX
  8
1
  6
CONTINUOUS
 10
286.398587
 20
33.436556
 42
0.053576
  0
VERTEX
  8
1
  6
CONTINUOUS
 10
286.444160
 20
33.470071
 42
0.038766
  0
VERTEX
  8
1
  6
CONTINUOUS
 10
286.483000
 20
33.511481
 42
0.034795
  0
VERTEX
  8
1
  6
CONTINUOUS
 10
286.522831
 20
33.568835
 42
0.025960
  0
VERTEX
  8
1
  6
CONTINUOUS
 10
286.555487
 20
33.630670
 42
0.023940
  0
VERTEX
  8
1
  6
CONTINUOUS
 10
286.586654
 20
33.707110
 42
0.019410
  0
VERTEX
  8
1
  6
CONTINUOUS
 10
286.611109
 20
33.786000
 42
0.018411
  0
VERTEX
  8
1
  6
CONTINUOUS
 10
286.631725
 20
33.875828
 42
0.016278
  0
VERTEX
  8
1
  6
CONTINUOUS
 10
286.646074
 20
33.966886
 42
0.015861
  0
VERTEX
  8
1
  6
CONTINUOUS
 10
286.655053
 20
34.063755
 42
0.015233
  0
VERTEX
  8
1
  6
CONTINUOUS
 10
286.658000
 20
34.161000
  0
SEQEND
  8
0
  0
TEXT
  8
1
  6
CONTINUOUS
 40
0.075000
 10
286.189000
 20
34.652000
  1
0.70
  7
ROMANC
  0
LINE
  8
1
  6
CONTINUOUS
 10
286.151000
 20
34.690000
 11
285.958000
 21
34.690000
  0
LINE
  8
1
  6
CONTINUOUS
 10
286.463000
 20
34.690000
 11
286.658000
 21
34.690000
  0
LINE
  8
1
  6
CONTINUOUS
 10
285.920000
 20
34.671000
 11
285.996000
 21
34.709000
  0
LINE
  8
1
  6
CONTINUOUS
 10
286.696000
 20
34.709000
 11
286.620000
 21
34.671000
  0
LINE
  8
1
  6
CONTINUOUS
 10
285.958000
 20
34.199000
 11
285.958000
 21
34.728000
  0
LINE
  8
1
  6
CONTINUOUS
 10
286.658000
 20
34.199000
 11
286.658000
 21
34.728000
  0
TEXT
  8
1
  6
CONTINUOUS
 40
0.075000
 10
286.904000
 20
33.860000
  1
1.10
 50
90.000000
  7
ROMANC
  0
LINE
  8
1
  6
CONTINUOUS
 10
286.866000
 20
33.822000
 11
286.866000
 21
33.411000
  0
LINE
  8
1
  6
CONTINUOUS
 10
286.866000
 20
34.099000
 11
286.866000
 21
34.511000
  0
LINE
  8
1
  6
CONTINUOUS
 10
286.885000
 20
33.374000
 11
286.847000
 21
33.448000
  0
LINE
  8
1
  6
CONTINUOUS
 10
286.847000
 20
34.548000
 11
286.885000
 21
34.474000
  0
LINE
  8
1
  6
CONTINUOUS
 10
286.346000
 20
33.411000
 11
286.904000
 21
33.411000
  0
LINE
  8
1
  6
CONTINUOUS
 10
286.346000
 20
34.511000
 11
286.904000
 21
34.511000
  0
ARC
  8
1
  6
CONTINUOUS
 10
286.308000
 20
34.161000
 40
0.360000
 50
0.000000
 51
180.000000
  0
ARC
  8
1
  6
CONTINUOUS
 10
286.308000
 20
34.161000
 40
0.370000
 50
0.000000
 51
180.000000
  0
POLYLINE
  8
1
  6
CONTINUOUS
 66
     1
 70
     0
  0
VERTEX
  8
1
  6
CONTINUOUS
 10
285.948000
 20
34.161000
 42
0.015462
  0
VERTEX
  8
1
  6
CONTINUOUS
 10
285.951031
 20
34.062453
 42
0.016094
  0
VERTEX
  8
1
  6
CONTINUOUS
 10
285.960267
 20
33.964298
 42
0.016514
  0
VERTEX
  8
1
  6
CONTINUOUS
 10
285.975029
 20
33.872008
 42
0.018655
  0
VERTEX
  8
1
  6
CONTINUOUS
 10
285.996231
 20
33.781000
 42
0.019658
  0
VERTEX
  8
1
  6
CONTINUOUS
 10
286.021397
 20
33.701026
 42
0.024184
  0
VERTEX
  8
1
  6
CONTINUOUS
 10
286.053442
 20
33.623599
 42
0.026200
  0
VERTEX
  8
1
  6
CONTINUOUS
 10
286.087062
 20
33.560892
 42
0.034944
  0
VERTEX
  8
1
  6
CONTINUOUS
 10
286.128000
 20
33.502821
 42
0.038857
  0
VERTEX
  8
1
  6
CONTINUOUS
 10
286.168009
 20
33.460811
 42
0.053264
  0
VERTEX
  8
1
  6
CONTINUOUS
 10
286.214825
 20
33.426896
 42
0.059074
  0
VERTEX
  8
1
  6
CONTINUOUS
 10
286.259846
 20
33.407996
 42
0.069288
  0
VERTEX
  8
1
  6
CONTINUOUS
 10
286.308000
 20
33.401000
 42
0.069288
  0
VERTEX
  8
1
  6
CONTINUOUS
 10
286.356154
 20
33.407996
 42
0.059074
  0
VERTEX
  8
1
  6
CONTINUOUS
 10
286.401175
 20
33.426896
 42
0.053264
  0
VERTEX
  8
1
  6
CONTINUOUS
 10
286.447991
 20
33.460811
 42
0.038857
  0
VERTEX
  8
1
  6
CONTINUOUS
 10
286.488000
 20
33.502821
 42
0.034944
  0
VERTEX
  8
1
  6
CONTINUOUS
 10
286.528938
 20
33.560892
 42
0.026200
  0
VERTEX
  8
1
  6
CONTINUOUS
 10
286.562558
 20
33.623599
 42
0.024184
  0
VERTEX
  8
1
  6
CONTINUOUS
 10
286.594603
 20
33.701026
 42
0.019658
  0
VERTEX
  8
1
  6
CONTINUOUS
 10
286.619769
 20
33.781000
 42
0.018655
  0
VERTEX
  8
1
  6
CONTINUOUS
 10
286.640971
 20
33.872008
 42
0.016514
  0
VERTEX
  8
1
  6
CONTINUOUS
 10
286.655733
 20
33.964298
 42
0.016094
  0
VERTEX
  8
1
  6
CONTINUOUS
 10
286.664969
 20
34.062453
 42
0.015462
  0
VERTEX
  8
1
  6
CONTINUOUS
 10
286.668000
 20
34.161000
  0
SEQEND
  8
0
  0
POLYLINE
  8
1
  6
CONTINUOUS
 66
     1
 70
     0
  0
VERTEX
  8
1
  6
CONTINUOUS
 10
285.938000
 20
34.161000
 42
0.015686
  0
VERTEX
  8
1
  6
CONTINUOUS
 10
285.941116
 20
34.061150
 42
0.016321
  0
VERTEX
  8
1
  6
CONTINUOUS
 10
285.950607
 20
33.961709
 42
0.016743
  0
VERTEX
  8
1
  6
CONTINUOUS
 10
285.965784
 20
33.868187
 42
0.018892
  0
VERTEX
  8
1
  6
CONTINUOUS
 10
285.987571
 20
33.776000
 42
0.019898
  0
VERTEX
  8
1
  6
CONTINUOUS
 10
286.013448
 20
33.694941
 42
0.024419
  0
VERTEX
  8
1
  6
CONTINUOUS
 10
286.046370
 20
33.616528
 42
0.026429
  0
VERTEX
  8
1
  6
CONTINUOUS
 10
286.080957
 20
33.552949
 42
0.035081
  0
VERTEX
  8
1
  6
CONTINUOUS
 10
286.123000
 20
33.494160
 42
0.038935
  0
VERTEX
  8
1
  6
CONTINUOUS
 10
286.164177
 20
33.451552
 42
0.052956
  0
VERTEX
  8
1
  6
CONTINUOUS
 10
286.212237
 20
33.417237
 42
0.058544
  0
VERTEX
  8
1
  6
CONTINUOUS
 10
286.258547
 20
33.398074
 42
0.068300
  0
VERTEX
  8
1
  6
CONTINUOUS
 10
286.308000
 20
33.391000
 42
0.068300
  0
VERTEX
  8
1
  6
CONTINUOUS
 10
286.357453
 20
33.398074
 42
0.058544
  0
VERTEX
  8
1
  6
CONTINUOUS
 10
286.403763
 20
33.417237
 42
0.052956
  0
VERTEX
  8
1
  6
CONTINUOUS
 10
286.451823
 20
33.451552
 42
0.038935
  0
VERTEX
  8
1
  6
CONTINUOUS
 10
286.493000
 20
33.494160
 42
0.035081
  0
VERTEX
  8
1
  6
CONTINUOUS
 10
286.535043
 20
33.552949
 42
0.026429
  0
VERTEX
  8
1
  6
CONTINUOUS
 10
286.569630
 20
33.616528
 42
0.024419
  0
VERTEX
  8
1
  6
CONTINUOUS
 10
286.602552
 20
33.694941
 42
0.019898
  0
VERTEX
  8
1
  6
CONTINUOUS
 10
286.628429
 20
33.776000
 42
0.018892
  0
VERTEX
  8
1
  6
CONTINUOUS
 10
286.650216
 20
33.868187
 42
0.016743
  0
VERTEX
  8
1
  6
CONTINUOUS
 10
286.665393
 20
33.961709
 42
0.016321
  0
VERTEX
  8
1
  6
CONTINUOUS
 10
286.674884
 20
34.061150
 42
0.015686
  0
VERTEX
  8
1
  6
CONTINUOUS
 10
286.678000
 20
34.161000
  0
SEQEND
  8
0
  0
ENDSEC
  0
EOF
