  0
SECTION
  2
HEADER
  9
$ACADVER
  1
AC1009
  9
$INSBASE
 10
107.605412
 20
81.052899
 30
0.0
  9
$EXTMIN
 10
107.605412
 20
81.052899
 30
0.0
  9
$EXTMAX
 10
118.105412
 20
95.902899
 30
0.0
  9
$LIMMIN
 10
0.0
 20
0.0
  9
$LIMMAX
 10
410.0
 20
287.0
  9
$ORTHOMODE
 70
     0
  9
$REGENMODE
 70
     1
  9
$FILLMODE
 70
     1
  9
$QTEXTMODE
 70
     0
  9
$MIRRTEXT
 70
     1
  9
$DRAGMODE
 70
     2
  9
$LTSCALE
 40
25.0
  9
$OSMODE
 70
    32
  9
$ATTMODE
 70
     1
  9
$TEXTSIZE
 40
0.1
  9
$TRACEWID
 40
1.0
  9
$TEXTSTYLE
  7
ROMANC
  9
$CLAYER
  8
0
  9
$CELTYPE
  6
BYLAYER
  9
$CECOLOR
 62
   256
  9
$DIMSCALE
 40
0.0
  9
$DIMASZ
 40
0.0
  9
$DIMEXO
 40
0.1
  9
$DIMDLI
 40
7.0
  9
$DIMRND
 40
0.0
  9
$DIMDLE
 40
0.0
  9
$DIMEXE
 40
1.8
  9
$DIMTP
 40
0.0
  9
$DIMTM
 40
0.0
  9
$DIMTXT
 40
0.03
  9
$DIMCEN
 40
1.5
  9
$DIMTSZ
 40
1.0
  9
$DIMTOL
 70
     0
  9
$DIMLIM
 70
     0
  9
$DIMTIH
 70
     0
  9
$DIMTOH
 70
     0
  9
$DIMSE1
 70
     0
  9
$DIMSE2
 70
     0
  9
$DIMTAD
 70
     0
  9
$DIMZIN
 70
     0
  9
$DIMBLK
  1

  9
$DIMASO
 70
     1
  9
$DIMSHO
 70
     0
  9
$DIMPOST
  1

  9
$DIMAPOST
  1

  9
$DIMALT
 70
     0
  9
$DIMALTD
 70
     2
  9
$DIMALTF
 40
25.4
  9
$DIMLFAC
 40
1.0
  9
$DIMTOFL
 70
     1
  9
$DIMTVP
 40
0.0
  9
$DIMTIX
 70
     1
  9
$DIMSOXD
 70
     0
  9
$DIMSAH
 70
     0
  9
$DIMBLK1
  1

  9
$DIMBLK2
  1

  9
$DIMSTYLE
  2
*UNNAMED
  9
$DIMCLRD
 70
     0
  9
$DIMCLRE
 70
     0
  9
$DIMCLRT
 70
     0
  9
$DIMTFAC
 40
116.666667
  9
$DIMGAP
 40
0.09
  9
$LUNITS
 70
     2
  9
$LUPREC
 70
     2
  9
$SKETCHINC
 40
1.0
  9
$FILLETRAD
 40
0.0
  9
$AUNITS
 70
     0
  9
$AUPREC
 70
     0
  9
$MENU
  1
acad
  9
$ELEVATION
 40
0.0
  9
$PELEVATION
 40
0.0
  9
$THICKNESS
 40
0.0
  9
$LIMCHECK
 70
     0
  9
$BLIPMODE
 70
     0
  9
$CHAMFERA
 40
0.0
  9
$CHAMFERB
 40
0.0
  9
$SKPOLY
 70
     0
  9
$TDCREATE
 40
2449962.688699537
  9
$TDUPDATE
 40
2450387.708535648
  9
$TDINDWG
 40
0.0070972222
  9
$TDUSRTIMER
 40
0.0070972222
  9
$USRTIMER
 70
     1
  9
$ANGBASE
 50
0.0
  9
$ANGDIR
 70
     0
  9
$PDMODE
 70
     0
  9
$PDSIZE
 40
0.0
  9
$PLINEWID
 40
0.0
  9
$COORDS
 70
     2
  9
$SPLFRAME
 70
     0
  9
$SPLINETYPE
 70
     6
  9
$SPLINESEGS
 70
     8
  9
$ATTDIA
 70
     0
  9
$ATTREQ
 70
     1
  9
$HANDLING
 70
     0
  9
$HANDSEED
  5
0
  9
$SURFTAB1
 70
     6
  9
$SURFTAB2
 70
     6
  9
$SURFTYPE
 70
     6
  9
$SURFU
 70
     6
  9
$SURFV
 70
     6
  9
$UCSNAME
  2

  9
$UCSORG
 10
0.0
 20
0.0
 30
0.0
  9
$UCSXDIR
 10
1.0
 20
0.0
 30
0.0
  9
$UCSYDIR
 10
0.0
 20
1.0
 30
0.0
  9
$PUCSNAME
  2

  9
$PUCSORG
 10
0.0
 20
0.0
 30
0.0
  9
$PUCSXDIR
 10
1.0
 20
0.0
 30
0.0
  9
$PUCSYDIR
 10
0.0
 20
1.0
 30
0.0
  9
$USERI1
 70
     0
  9
$USERI2
 70
     0
  9
$USERI3
 70
     0
  9
$USERI4
 70
     0
  9
$USERI5
 70
     0
  9
$USERR1
 40
0.0
  9
$USERR2
 40
0.0
  9
$USERR3
 40
0.0
  9
$USERR4
 40
0.0
  9
$USERR5
 40
0.0
  9
$WORLDVIEW
 70
     1
  9
$SHADEDGE
 70
     3
  9
$SHADEDIF
 70
    70
  9
$TILEMODE
 70
     1
  9
$MAXACTVP
 70
    16
  9
$PINSBASE
 10
0.0
 20
0.0
 30
0.0
  9
$PLIMCHECK
 70
     0
  9
$PEXTMIN
 10
1.000000E+20
 20
1.000000E+20
 30
1.000000E+20
  9
$PEXTMAX
 10
-1.000000E+20
 20
-1.000000E+20
 30
-1.000000E+20
  9
$PLIMMIN
 10
0.0
 20
0.0
  9
$PLIMMAX
 10
12.0
 20
9.0
  9
$UNITMODE
 70
     0
  9
$VISRETAIN
 70
     0
  9
$PLINEGEN
 70
     0
  9
$PSLTSCALE
 70
     0
  9
$TREEDEPTH
 70
  3020
  9
$DWGCODEPAGE
  3
iso8859-1
  0
ENDSEC
  0
SECTION
  2
TABLES
  0
TABLE
  2
VPORT
 70
     2
  0
VPORT
  2
*ACTIVE
 70
     0
 10
0.0
 20
0.0
 11
1.0
 21
1.0
 12
119.780492
 22
88.477899
 13
0.0
 23
0.0
 14
1.0
 24
1.0
 15
10.0
 25
10.0
 16
0.0
 26
0.0
 36
1.0
 17
0.0
 27
0.0
 37
0.0
 40
14.85
 41
1.639742
 42
50.0
 43
0.0
 44
0.0
 50
0.0
 51
0.0
 71
     0
 72
   100
 73
     1
 74
     0
 75
     0
 76
     0
 77
     0
 78
     2
  0
ENDTAB
  0
TABLE
  2
LTYPE
 70
     1
  0
LTYPE
  2
CONTINUOUS
 70
    64
  3
Solid line
 72
    65
 73
     0
 40
0.0
  0
ENDTAB
  0
TABLE
  2
LAYER
 70
     1
  0
LAYER
  2
0
 70
    64
 62
     7
  6
CONTINUOUS
  0
ENDTAB
  0
TABLE
  2
STYLE
 70
     2
  0
STYLE
  2
STANDARD
 70
     0
 40
0.0
 41
1.0
 50
0.0
 71
     0
 42
0.1
  3
txt
  4

  0
STYLE
  2
ROMANC
 70
    64
 40
0.0
 41
1.0
 50
0.0
 71
     0
 42
0.1
  3
romanc
  4

  0
ENDTAB
  0
TABLE
  2
VIEW
 70
     0
  0
ENDTAB
  0
TABLE
  2
UCS
 70
     0
  0
ENDTAB
  0
TABLE
  2
APPID
 70
     1
  0
APPID
  2
ACAD
 70
    64
  0
ENDTAB
  0
TABLE
  2
DIMSTYLE
 70
     0
  0
ENDTAB
  0
ENDSEC
  0
SECTION
  2
BLOCKS
  0
ENDSEC
  0
SECTION
  2
ENTITIES
  0
LINE
  8
0
 10
107.605412
 20
95.902899
 30
0.0
 11
107.605412
 21
81.052899
 31
0.0
  0
LINE
  8
0
 10
118.105412
 20
81.052899
 30
0.0
 11
118.105412
 21
95.902899
 31
0.0
  0
LINE
  8
0
 10
107.605412
 20
81.052899
 30
0.0
 11
118.105412
 21
81.052899
 31
0.0
  0
LINE
  8
0
 10
118.105412
 20
95.902899
 30
0.0
 11
107.605412
 21
95.902899
 31
0.0
  0
POLYLINE
  8
0
 66
     1
 10
0.0
 20
0.0
 30
0.0
 70
     1
  0
VERTEX
  8
0
 10
112.968019
 20
86.208432
 30
0.0
  0
VERTEX
  8
0
 10
112.968019
 20
87.098432
 30
0.0
  0
VERTEX
  8
0
 10
112.348019
 20
87.098432
 30
0.0
  0
VERTEX
  8
0
 10
112.348019
 20
86.208432
 30
0.0
 42
0.325677
  0
VERTEX
  8
0
 10
112.362325
 20
86.188798
 30
0.0
 42
0.044747
  0
VERTEX
  8
0
 10
112.444565
 20
86.170236
 30
0.0
 42
0.019347
 70
     2
 50
352.405357
  0
VERTEX
  8
0
 10
112.53343
 20
86.16187
 30
0.0
 42
0.013794
 50
352.405357
  0
VERTEX
  8
0
 10
112.658019
 20
86.158432
 30
0.0
 42
0.013794
  0
VERTEX
  8
0
 10
112.782607
 20
86.16187
 30
0.0
 42
0.019347
  0
VERTEX
  8
0
 10
112.871472
 20
86.170236
 30
0.0
 42
0.044747
 70
     2
 50
7.594643
  0
VERTEX
  8
0
 10
112.953712
 20
86.188798
 30
0.0
 42
0.325677
 50
7.594643
  0
SEQEND
  8
0
  0
POLYLINE
  8
0
 66
     1
 10
0.0
 20
0.0
 30
0.0
 70
     1
  0
VERTEX
  8
0
 10
112.948019
 20
86.208432
 30
0.0
  0
VERTEX
  8
0
 10
112.948019
 20
87.078432
 30
0.0
  0
VERTEX
  8
0
 10
112.368019
 20
87.078432
 30
0.0
  0
VERTEX
  8
0
 10
112.368019
 20
86.208432
 30
0.0
 42
0.325677
  0
VERTEX
  8
0
 10
112.368453
 20
86.207836
 30
0.0
 42
0.044747
  0
VERTEX
  8
0
 10
112.447208
 20
86.19006
 30
0.0
 42
0.019347
 70
     2
 50
352.405357
  0
VERTEX
  8
0
 10
112.534533
 20
86.18184
 30
0.0
 42
0.013794
 50
352.405357
  0
VERTEX
  8
0
 10
112.658019
 20
86.178432
 30
0.0
 42
0.013794
  0
VERTEX
  8
0
 10
112.781504
 20
86.18184
 30
0.0
 42
0.019347
  0
VERTEX
  8
0
 10
112.868829
 20
86.19006
 30
0.0
 42
0.044747
 70
     2
 50
7.594643
  0
VERTEX
  8
0
 10
112.947584
 20
86.207836
 30
0.0
 42
0.325677
 50
7.594643
  0
SEQEND
  8
0
  0
POLYLINE
  8
0
 66
     1
 10
0.0
 20
0.0
 30
0.0
 70
     1
  0
VERTEX
  8
0
 10
112.958019
 20
86.208432
 30
0.0
  0
VERTEX
  8
0
 10
112.958019
 20
87.088432
 30
0.0
  0
VERTEX
  8
0
 10
112.358019
 20
87.088432
 30
0.0
  0
VERTEX
  8
0
 10
112.358019
 20
86.208432
 30
0.0
 42
0.325677
  0
VERTEX
  8
0
 10
112.365389
 20
86.198317
 30
0.0
 42
0.044747
  0
VERTEX
  8
0
 10
112.445887
 20
86.180148
 30
0.0
 42
0.019347
 70
     2
 50
352.405357
  0
VERTEX
  8
0
 10
112.533982
 20
86.171855
 30
0.0
 42
0.013794
 50
352.405357
  0
VERTEX
  8
0
 10
112.658019
 20
86.168432
 30
0.0
 42
0.013794
  0
VERTEX
  8
0
 10
112.782056
 20
86.171855
 30
0.0
 42
0.019347
  0
VERTEX
  8
0
 10
112.870151
 20
86.180148
 30
0.0
 42
0.044747
 70
     2
 50
7.594643
  0
VERTEX
  8
0
 10
112.950648
 20
86.198317
 30
0.0
 42
0.325677
 50
7.594643
  0
SEQEND
  8
0
  0
TEXT
  8
0
 10
113.08662
 20
86.179457
 30
0.0
 40
0.1
  1
0.15
  7
ROMANC
  0
LINE
  8
0
 10
112.958019
 20
86.168432
 30
0.0
 11
112.658019
 21
86.168432
 31
0.0
  0
LINE
  8
0
 10
113.03637
 20
87.07631
 30
0.0
 11
113.06063
 21
87.100555
 31
0.0
  0
LINE
  8
0
 10
112.345888
 20
86.05846
 30
0.0
 11
112.370149
 21
86.082706
 31
0.0
  0
LINE
  8
0
 10
112.945888
 20
86.05846
 30
0.0
 11
112.970149
 21
86.082706
 31
0.0
  0
LINE
  8
0
 10
113.03637
 20
86.19631
 30
0.0
 11
113.06063
 21
86.220555
 31
0.0
  0
LINE
  8
0
 10
113.03637
 20
86.15631
 30
0.0
 11
113.06063
 21
86.180555
 31
0.0
  0
LINE
  8
0
 10
112.958019
 20
86.168432
 30
0.0
 11
113.0485
 21
86.168432
 31
0.0
  0
LINE
  8
0
 10
112.958019
 20
86.168432
 30
0.0
 11
113.0485
 21
86.168432
 31
0.0
  0
LINE
  8
0
 10
112.958019
 20
87.088432
 30
0.0
 11
113.0485
 21
87.088432
 31
0.0
  0
LINE
  8
0
 10
112.958019
 20
86.208432
 30
0.0
 11
113.0485
 21
86.208432
 31
0.0
  0
LINE
  8
0
 10
112.958019
 20
86.208432
 30
0.0
 11
112.958019
 21
86.070583
 31
0.0
  0
LINE
  8
0
 10
112.358019
 20
86.208432
 30
0.0
 11
112.358019
 21
86.070583
 31
0.0
  0
LINE
  8
0
 10
113.0485
 20
86.168432
 30
0.0
 11
113.0485
 21
87.088432
 31
0.0
  0
LINE
  8
0
 10
112.358019
 20
86.070583
 30
0.0
 11
112.958019
 21
86.070583
 31
0.0
  0
TEXT
  8
0
 10
112.511993
 20
85.884279
 30
0.0
 40
0.1
  1
0.60
  7
ROMANC
  0
TEXT
  8
0
 10
113.092164
 20
86.701634
 30
0.0
 40
0.1
  1
0.88
  7
ROMANC
  0
TEXT
  8
0
 10
109.700048
 20
92.404168
 30
0.0
 40
0.3
  1
S =  55  dm
  7
ROMANC
  0
TEXT
  8
0
 10
109.69722
 20
91.73067
 30
0.0
 40
0.3
  1
P = 29.8 dm
  7
ROMANC
  0
TEXT
  8
0
 10
109.711444
 20
93.040807
 30
0.0
 40
0.3
  1
ESCALA  1:50
  7
ROMANC
  0
TEXT
  8
0
 10
109.711444
 20
93.526521
 30
0.0
 40
0.3
  1
TIPUS   T55
  7
ROMANC
  0
TEXT
  8
0
 10
113.207879
 20
92.710084
 30
0.0
 40
0.1
  1
2
  7
ROMANC
  0
ENDSEC
  0
EOF
