  0
SECTION
  2
HEADER
  9
$ACADVER
  1
AC1009
  9
$INSBASE
 10
0.0
 20
0.0
 30
0.0
  9
$EXTMIN
 10
281.396000
 20
29.897000
 30
-2147483.648000
  9
$EXTMAX
 10
291.896000
 20
44.747000
 30
0.000000
  9
$LIMMIN
 10
280.396000
 20
28.897000
  9
$LIMMAX
 10
292.896000
 20
43.747000
  9
$ORTHOMODE
 70
     0
  9
$REGENMODE
 70
     1
  9
$FILLMODE
 70
     1
  9
$QTEXTMODE
 70
     0
  9
$MIRRTEXT
 70
     1
  9
$DRAGMODE
 70
     2
  9
$LTSCALE
 40
1.0
  9
$OSMODE
 70
     0
  9
$ATTMODE
 70
     1
  9
$TEXTSIZE
 40
0.2
  9
$TRACEWID
 40
0.05
  9
$TEXTSTYLE
  7
STANDARD
  9
$CLAYER
  8
0
  9
$CELTYPE
  6
BYLAYER
  9
$CECOLOR
 62
   256
  9
$DIMSCALE
 40
1.0
  9
$DIMASZ
 40
0.18
  9
$DIMEXO
 40
0.0625
  9
$DIMDLI
 40
0.38
  9
$DIMRND
 40
0.0
  9
$DIMDLE
 40
0.0
  9
$DIMEXE
 40
0.18
  9
$DIMTP
 40
0.0
  9
$DIMTM
 40
0.0
  9
$DIMTXT
 40
0.18
  9
$DIMCEN
 40
0.09
  9
$DIMTSZ
 40
0.0
  9
$DIMTOL
 70
     0
  9
$DIMLIM
 70
     0
  9
$DIMTIH
 70
     1
  9
$DIMTOH
 70
     1
  9
$DIMSE1
 70
     0
  9
$DIMSE2
 70
     0
  9
$DIMTAD
 70
     0
  9
$DIMZIN
 70
     0
  9
$DIMBLK
  1

  9
$DIMASO
 70
     1
  9
$DIMSHO
 70
     1
  9
$DIMPOST
  1

  9
$DIMAPOST
  1

  9
$DIMALT
 70
     0
  9
$DIMALTD
 70
     2
  9
$DIMALTF
 40
25.4
  9
$DIMLFAC
 40
1.0
  9
$DIMTOFL
 70
     0
  9
$DIMTVP
 40
0.0
  9
$DIMTIX
 70
     0
  9
$DIMSOXD
 70
     0
  9
$DIMSAH
 70
     0
  9
$DIMBLK1
  1

  9
$DIMBLK2
  1

  9
$DIMSTYLE
  2
*UNNAMED
  9
$DIMCLRD
 70
     0
  9
$DIMCLRE
 70
     0
  9
$DIMCLRT
 70
     0
  9
$DIMTFAC
 40
1.0
  9
$DIMGAP
 40
0.09
  9
$LUNITS
 70
     2
  9
$LUPREC
 70
     4
  9
$AXISMODE
 70
     0
  9
$AXISUNIT
 10
0.0
 20
0.0
  9
$SKETCHINC
 40
0.1
  9
$FILLETRAD
 40
0.0
  9
$AUNITS
 70
     0
  9
$AUPREC
 70
     0
  9
$MENU
  1
acad
  9
$ELEVATION
 40
0.0
  9
$PELEVATION
 40
0.0
  9
$THICKNESS
 40
0.0
  9
$LIMCHECK
 70
     0
  9
$BLIPMODE
 70
     1
  9
$CHAMFERA
 40
0.0
  9
$CHAMFERB
 40
0.0
  9
$SKPOLY
 70
     0
  9
$TDCREATE
 40
2448315.373408102
  9
$TDUPDATE
 40
2448315.373408102
  9
$TDINDWG
 40
0.0000000000
  9
$TDUSRTIMER
 40
0.0000000000
  9
$USRTIMER
 70
     1
  9
$ANGBASE
 50
0.0
  9
$ANGDIR
 70
     0
  9
$PDMODE
 70
     0
  9
$PDSIZE
 40
0.0
  9
$PLINEWID
 40
0.0
  9
$COORDS
 70
     0
  9
$SPLFRAME
 70
     0
  9
$SPLINETYPE
 70
     6
  9
$SPLINESEGS
 70
     8
  9
$ATTDIA
 70
     0
  9
$ATTREQ
 70
     1
  9
$HANDLING
 70
     0
  9
$HANDSEED
  5
0
  9
$SURFTAB1
 70
     6
  9
$SURFTAB2
 70
     6
  9
$SURFTYPE
 70
     6
  9
$SURFU
 70
     6
  9
$SURFV
 70
     6
  9
$UCSNAME
  2

  9
$UCSORG
 10
0.0
 20
0.0
 30
0.0
  9
$UCSXDIR
 10
1.0
 20
0.0
 30
0.0
  9
$UCSYDIR
 10
0.0
 20
1.0
 30
0.0
  9
$PUCSNAME
  2

  9
$PUCSORG
 10
0.0
 20
0.0
 30
0.0
  9
$PUCSXDIR
 10
1.0
 20
0.0
 30
0.0
  9
$PUCSYDIR
 10
0.0
 20
1.0
 30
0.0
  9
$USERI1
 70
     0
  9
$USERI2
 70
     0
  9
$USERI3
 70
     0
  9
$USERI4
 70
     0
  9
$USERI5
 70
     0
  9
$USERR1
 40
0.0
  9
$USERR2
 40
0.0
  9
$USERR3
 40
0.0
  9
$USERR4
 40
0.0
  9
$USERR5
 40
0.0
  9
$WORLDVIEW
 70
     1
  9
$SHADEDGE
 70
     3
  9
$SHADEDIF
 70
    70
  9
$TILEMODE
 70
     1
  9
$MAXACTVP
 70
    16
  9
$PINSBASE
 10
0.0
 20
0.0
 30
0.0
  9
$PLIMCHECK
 70
     0
  9
$PEXTMIN
 10
1.000000E+20
 20
1.000000E+20
 30
1.000000E+20
  9
$PEXTMAX
 10
-1.000000E+20
 20
-1.000000E+20
 30
-1.000000E+20
  9
$PLIMMIN
 10
0.0
 20
0.0
  9
$PLIMMAX
 10
12.0
 20
9.0
  9
$UNITMODE
 70
     0
  9
$VISRETAIN
 70
     0
  0
ENDSEC
  0
SECTION
  2
TABLES
  0
TABLE
  2
LTYPE
 70
    1
  0
LTYPE
  2
CONTINUOUS
 70
    64
3
Solid line
 72
    65
 73
0
 40
0.000000
  0
ENDTAB
  0
TABLE
  2
LAYER
 70
    8
  0
LAYER
  2
0
 70
    64
 62
7
  6
CONTINUOUS
  0
LAYER
  2
1
 70
    64
 62
7
  6
CONTINUOUS
  0
LAYER
  2
7
 70
    64
 62
7
  6
CONTINUOUS
  0
LAYER
  2
8
 70
    64
 62
7
  6
CONTINUOUS
  0
LAYER
  2
9
 70
    64
 62
7
  6
CONTINUOUS
  0
LAYER
  2
22
 70
    64
 62
7
  6
CONTINUOUS
  0
LAYER
  2
25
 70
    64
 62
7
  6
CONTINUOUS
  0
LAYER
  2
0
 70
    64
 62
7
  6
CONTINUOUS
  0
ENDTAB
  0
TABLE
  2
STYLE
 70
    1
  0
STYLE
  2
ROMANC
70
     0
 40
0.0
 41
1.0
 50
0.0
 71
     0
 42
0.2
  3
ROMANC
  4

  0
ENDTAB
  0
ENDSEC
  0
SECTION
  2
BLOCKS
  0
ENDSEC
  0
SECTION
  2
ENTITIES
  0
TEXT
  8
0
  6
CONTINUOUS
 40
0.100000
 10
286.711000
 20
41.342000
  1
2
  7
ROMANC
  0
TEXT
  8
0
  6
CONTINUOUS
 40
0.300000
 10
283.926000
 20
41.768000
  1
ESCALA  1:50
  7
ROMANC
  0
POLYLINE
  8
0
  6
CONTINUOUS
 66
     1
 70
     1
  0
VERTEX
  8
0
  6
CONTINUOUS
 10
281.396000
 20
44.747000
  0
VERTEX
  8
0
  6
CONTINUOUS
 10
291.896000
 20
44.747000
  0
VERTEX
  8
0
  6
CONTINUOUS
 10
291.896000
 20
29.897000
  0
VERTEX
  8
0
  6
CONTINUOUS
 10
281.396000
 20
29.897000
  0
SEQEND
  8
0
  0
TEXT
  8
0
  6
CONTINUOUS
 40
0.300000
 10
283.926000
 20
42.381000
  1
TIPUS   T52B
  7
ROMANC
  0
TEXT
  8
1
  6
CONTINUOUS
 40
0.075000
 10
285.272000
 20
35.108000
  1
0.10
  7
ROMANC
  0
LINE
  8
1
  6
CONTINUOUS
 10
285.605000
 20
35.146000
 11
285.678000
 21
35.146000
  0
LINE
  8
1
  6
CONTINUOUS
 10
285.928000
 20
35.146000
 11
285.778000
 21
35.146000
  0
LINE
  8
1
  6
CONTINUOUS
 10
285.716000
 20
35.165000
 11
285.640000
 21
35.127000
  0
LINE
  8
1
  6
CONTINUOUS
 10
285.740000
 20
35.127000
 11
285.816000
 21
35.165000
  0
LINE
  8
1
  6
CONTINUOUS
 10
285.678000
 20
35.487000
 11
285.678000
 21
35.108000
  0
LINE
  8
1
  6
CONTINUOUS
 10
285.778000
 20
35.487000
 11
285.778000
 21
35.108000
  0
TEXT
  8
1
  6
CONTINUOUS
 40
0.075000
 10
285.856000
 20
34.972000
  1
0.40
  7
ROMANC
  0
LINE
  8
1
  6
CONTINUOUS
 10
285.628000
 20
35.009000
 11
285.778000
 21
35.009000
  0
LINE
  8
1
  6
CONTINUOUS
 10
286.328000
 20
35.009000
 11
286.178000
 21
35.009000
  0
LINE
  8
1
  6
CONTINUOUS
 10
285.816000
 20
35.028000
 11
285.740000
 21
34.990000
  0
LINE
  8
1
  6
CONTINUOUS
 10
286.140000
 20
34.990000
 11
286.216000
 21
35.028000
  0
LINE
  8
1
  6
CONTINUOUS
 10
285.778000
 20
35.487000
 11
285.778000
 21
34.971000
  0
LINE
  8
1
  6
CONTINUOUS
 10
286.178000
 20
35.487000
 11
286.178000
 21
34.971000
  0
TEXT
  8
1
  6
CONTINUOUS
 40
0.075000
 10
286.478000
 20
35.108000
  1
0.10
  7
ROMANC
  0
LINE
  8
1
  6
CONTINUOUS
 10
286.028000
 20
35.146000
 11
286.178000
 21
35.146000
  0
LINE
  8
1
  6
CONTINUOUS
 10
286.440000
 20
35.146000
 11
286.278000
 21
35.146000
  0
LINE
  8
1
  6
CONTINUOUS
 10
286.216000
 20
35.165000
 11
286.140000
 21
35.127000
  0
LINE
  8
1
  6
CONTINUOUS
 10
286.240000
 20
35.127000
 11
286.316000
 21
35.165000
  0
LINE
  8
1
  6
CONTINUOUS
 10
286.178000
 20
35.487000
 11
286.178000
 21
35.108000
  0
LINE
  8
1
  6
CONTINUOUS
 10
286.278000
 20
35.487000
 11
286.278000
 21
35.108000
  0
TEXT
  8
1
  6
CONTINUOUS
 40
0.075000
 10
286.576000
 20
35.756000
  1
0.70
 50
90.000000
  7
ROMANC
  0
LINE
  8
1
  6
CONTINUOUS
 10
286.538000
 20
35.718000
 11
286.538000
 21
35.525000
  0
LINE
  8
1
  6
CONTINUOUS
 10
286.538000
 20
36.030000
 11
286.538000
 21
36.225000
  0
LINE
  8
1
  6
CONTINUOUS
 10
286.557000
 20
35.488000
 11
286.519000
 21
35.562000
  0
LINE
  8
1
  6
CONTINUOUS
 10
286.519000
 20
36.262000
 11
286.557000
 21
36.188000
  0
LINE
  8
1
  6
CONTINUOUS
 10
286.316000
 20
35.525000
 11
286.576000
 21
35.525000
  0
LINE
  8
1
  6
CONTINUOUS
 10
286.316000
 20
36.225000
 11
286.576000
 21
36.225000
  0
TEXT
  8
1
  6
CONTINUOUS
 40
0.075000
 10
286.688000
 20
36.552000
  1
0.15
 50
90.000000
  7
ROMANC
  0
LINE
  8
1
  6
CONTINUOUS
 10
286.651000
 20
36.075000
 11
286.651000
 21
36.225000
  0
LINE
  8
1
  6
CONTINUOUS
 10
286.651000
 20
36.514000
 11
286.651000
 21
36.375000
  0
LINE
  8
1
  6
CONTINUOUS
 10
286.632000
 20
36.262000
 11
286.670000
 21
36.188000
  0
LINE
  8
1
  6
CONTINUOUS
 10
286.670000
 20
36.338000
 11
286.632000
 21
36.412000
  0
LINE
  8
1
  6
CONTINUOUS
 10
286.016000
 20
36.375000
 11
286.689000
 21
36.375000
  0
LINE
  8
1
  6
CONTINUOUS
 10
286.576000
 20
36.225000
 11
286.689000
 21
36.225000
  0
TEXT
  8
1
  6
CONTINUOUS
 40
0.075000
 10
286.456000
 20
35.702000
  1
0.20
 50
90.000000
  7
ROMANC
  0
LINE
  8
1
  6
CONTINUOUS
 10
286.419000
 20
35.175000
 11
286.419000
 21
35.325000
  0
LINE
  8
1
  6
CONTINUOUS
 10
286.419000
 20
35.664000
 11
286.419000
 21
35.525000
  0
LINE
  8
1
  6
CONTINUOUS
 10
286.400000
 20
35.362000
 11
286.438000
 21
35.288000
  0
LINE
  8
1
  6
CONTINUOUS
 10
286.438000
 20
35.488000
 11
286.400000
 21
35.562000
  0
LINE
  8
1
  6
CONTINUOUS
 10
286.016000
 20
35.325000
 11
286.457000
 21
35.325000
  0
LINE
  8
1
  6
CONTINUOUS
 10
286.316000
 20
35.525000
 11
286.457000
 21
35.525000
  0
TEXT
  8
1
  6
CONTINUOUS
 40
0.075000
 10
286.848000
 20
35.740000
  1
1.05
 50
90.000000
  7
ROMANC
  0
LINE
  8
1
  6
CONTINUOUS
 10
286.811000
 20
35.702000
 11
286.811000
 21
35.325000
  0
LINE
  8
1
  6
CONTINUOUS
 10
286.811000
 20
35.997000
 11
286.811000
 21
36.375000
  0
LINE
  8
1
  6
CONTINUOUS
 10
286.830000
 20
35.288000
 11
286.792000
 21
35.362000
  0
LINE
  8
1
  6
CONTINUOUS
 10
286.792000
 20
36.412000
 11
286.830000
 21
36.338000
  0
LINE
  8
1
  6
CONTINUOUS
 10
286.016000
 20
35.325000
 11
286.849000
 21
35.325000
  0
LINE
  8
1
  6
CONTINUOUS
 10
286.016000
 20
36.375000
 11
286.849000
 21
36.375000
  0
TEXT
  8
1
  6
CONTINUOUS
 40
0.075000
 10
285.859000
 20
34.808000
  1
0.60
  7
ROMANC
  0
LINE
  8
1
  6
CONTINUOUS
 10
285.528000
 20
34.845000
 11
285.678000
 21
34.845000
  0
LINE
  8
1
  6
CONTINUOUS
 10
286.428000
 20
34.845000
 11
286.278000
 21
34.845000
  0
LINE
  8
1
  6
CONTINUOUS
 10
285.716000
 20
34.864000
 11
285.640000
 21
34.826000
  0
LINE
  8
1
  6
CONTINUOUS
 10
286.240000
 20
34.826000
 11
286.316000
 21
34.864000
  0
LINE
  8
1
  6
CONTINUOUS
 10
285.678000
 20
35.487000
 11
285.678000
 21
34.807000
  0
LINE
  8
1
  6
CONTINUOUS
 10
286.278000
 20
35.487000
 11
286.278000
 21
34.807000
  0
POLYLINE
  8
1
  6
CONTINUOUS
 66
     1
 70
     0
  0
VERTEX
  8
1
  6
CONTINUOUS
 10
285.668000
 20
36.228000
  0
VERTEX
  8
1
  6
CONTINUOUS
 10
285.668000
 20
35.515000
  0
VERTEX
  8
1
  6
CONTINUOUS
 10
285.774000
 20
35.515000
  0
VERTEX
  8
1
  6
CONTINUOUS
 10
285.978000
 20
35.311000
  0
VERTEX
  8
1
  6
CONTINUOUS
 10
286.182000
 20
35.515000
  0
VERTEX
  8
1
  6
CONTINUOUS
 10
286.288000
 20
35.515000
  0
VERTEX
  8
1
  6
CONTINUOUS
 10
286.288000
 20
36.228000
  0
SEQEND
  8
0
  0
POLYLINE
  8
1
  6
CONTINUOUS
 66
     1
 70
     0
  0
VERTEX
  8
1
  6
CONTINUOUS
 10
285.658000
 20
36.232000
  0
VERTEX
  8
1
  6
CONTINUOUS
 10
285.658000
 20
35.505000
  0
VERTEX
  8
1
  6
CONTINUOUS
 10
285.770000
 20
35.505000
  0
VERTEX
  8
1
  6
CONTINUOUS
 10
285.978000
 20
35.297000
  0
VERTEX
  8
1
  6
CONTINUOUS
 10
286.186000
 20
35.505000
  0
VERTEX
  8
1
  6
CONTINUOUS
 10
286.298000
 20
35.505000
  0
VERTEX
  8
1
  6
CONTINUOUS
 10
286.298000
 20
36.232000
  0
SEQEND
  8
0
  0
ARC
  8
1
  6
CONTINUOUS
 10
285.978000
 20
36.000000
 40
0.385000
 50
36.370928
 51
143.629072
  0
ARC
  8
1
  6
CONTINUOUS
 10
285.978000
 20
36.000000
 40
0.395000
 50
35.891700
 51
144.108300
  0
POLYLINE
  8
1
  6
CONTINUOUS
 66
     1
 70
     0
  0
VERTEX
  8
1
  6
CONTINUOUS
 10
285.678000
 20
36.225000
  0
VERTEX
  8
1
  6
CONTINUOUS
 10
285.678000
 20
35.525000
  0
VERTEX
  8
1
  6
CONTINUOUS
 10
285.778000
 20
35.525000
  0
VERTEX
  8
1
  6
CONTINUOUS
 10
285.978000
 20
35.325000
  0
VERTEX
  8
1
  6
CONTINUOUS
 10
286.178000
 20
35.525000
  0
VERTEX
  8
1
  6
CONTINUOUS
 10
286.278000
 20
35.525000
  0
VERTEX
  8
1
  6
CONTINUOUS
 10
286.278000
 20
36.225000
  0
SEQEND
  8
0
  0
ARC
  8
1
  6
CONTINUOUS
 10
285.978000
 20
36.000000
 40
0.375000
 50
396.869897
 51
503.130103
  0
TEXT
  8
0
  6
CONTINUOUS
 40
0.300000
 10
283.922000
 20
40.529000
  1
P = 29 dm
  7
ROMANC
  0
TEXT
  8
0
  6
CONTINUOUS
 40
0.300000
 10
283.945000
 20
41.099000
  1
S = 52 dm
  7
ROMANC
  0
ENDSEC
  0
EOF
