  0
SECTION
  2
HEADER
  9
$ACADVER
  1
AC1014
  9
$ACADMAINTVER
 70
     9
  9
$DWGCODEPAGE
  3
ANSI_1252
  9
$INSBASE
 10
0.0
 20
0.0
 30
0.0
  9
$EXTMIN
 10
281.3950692441341
 20
29.89657355491301
 30
-98.29650011472404
  9
$EXTMAX
 10
291.8969308140735
 20
44.74748374051749
 30
65.54100007656962
  9
$LIMMIN
 10
280.396
 20
28.89699999999999
  9
$LIMMAX
 10
292.896
 20
43.74699999999999
  9
$ORTHOMODE
 70
     1
  9
$REGENMODE
 70
     1
  9
$FILLMODE
 70
     1
  9
$QTEXTMODE
 70
     0
  9
$MIRRTEXT
 70
     1
  9
$DRAGMODE
 70
     2
  9
$LTSCALE
 40
1.0
  9
$OSMODE
 70
    33
  9
$ATTMODE
 70
     1
  9
$TEXTSIZE
 40
0.2
  9
$TRACEWID
 40
0.05
  9
$TEXTSTYLE
  7
STANDARD
  9
$CLAYER
  8
0
  9
$CELTYPE
  6
BYLAYER
  9
$CECOLOR
 62
   256
  9
$CELTSCALE
 40
1.0
  9
$DELOBJ
 70
     1
  9
$DISPSILH
 70
     0
  9
$DIMSCALE
 40
1.0
  9
$DIMASZ
 40
0.18
  9
$DIMEXO
 40
0.0625
  9
$DIMDLI
 40
0.38
  9
$DIMRND
 40
0.0
  9
$DIMDLE
 40
0.0
  9
$DIMEXE
 40
0.18
  9
$DIMTP
 40
0.0
  9
$DIMTM
 40
0.0
  9
$DIMTXT
 40
0.18
  9
$DIMCEN
 40
0.09
  9
$DIMTSZ
 40
0.0
  9
$DIMTOL
 70
     0
  9
$DIMLIM
 70
     0
  9
$DIMTIH
 70
     1
  9
$DIMTOH
 70
     1
  9
$DIMSE1
 70
     0
  9
$DIMSE2
 70
     0
  9
$DIMTAD
 70
     0
  9
$DIMZIN
 70
     0
  9
$DIMBLK
  1

  9
$DIMASO
 70
     1
  9
$DIMSHO
 70
     1
  9
$DIMPOST
  1

  9
$DIMAPOST
  1

  9
$DIMALT
 70
     0
  9
$DIMALTD
 70
     2
  9
$DIMALTF
 40
25.4
  9
$DIMLFAC
 40
1.0
  9
$DIMTOFL
 70
     0
  9
$DIMTVP
 40
0.0
  9
$DIMTIX
 70
     0
  9
$DIMSOXD
 70
     0
  9
$DIMSAH
 70
     0
  9
$DIMBLK1
  1

  9
$DIMBLK2
  1

  9
$DIMSTYLE
  2
STANDARD
  9
$DIMCLRD
 70
     0
  9
$DIMCLRE
 70
     0
  9
$DIMCLRT
 70
     0
  9
$DIMTFAC
 40
1.0
  9
$DIMGAP
 40
0.09
  9
$DIMJUST
 70
     0
  9
$DIMSD1
 70
     0
  9
$DIMSD2
 70
     0
  9
$DIMTOLJ
 70
     1
  9
$DIMTZIN
 70
     0
  9
$DIMALTZ
 70
     0
  9
$DIMALTTZ
 70
     0
  9
$DIMFIT
 70
     3
  9
$DIMUPT
 70
     0
  9
$DIMUNIT
 70
     2
  9
$DIMDEC
 70
     4
  9
$DIMTDEC
 70
     4
  9
$DIMALTU
 70
     2
  9
$DIMALTTD
 70
     2
  9
$DIMTXSTY
  7
STANDARD
  9
$DIMAUNIT
 70
     0
  9
$LUNITS
 70
     2
  9
$LUPREC
 70
     4
  9
$SKETCHINC
 40
0.1
  9
$FILLETRAD
 40
0.0
  9
$AUNITS
 70
     0
  9
$AUPREC
 70
     0
  9
$MENU
  1
acad
  9
$ELEVATION
 40
0.0
  9
$PELEVATION
 40
0.0
  9
$THICKNESS
 40
0.0
  9
$LIMCHECK
 70
     0
  9
$BLIPMODE
 70
     0
  9
$CHAMFERA
 40
0.0
  9
$CHAMFERB
 40
0.0
  9
$CHAMFERC
 40
0.0
  9
$CHAMFERD
 40
0.0
  9
$SKPOLY
 70
     0
  9
$TDCREATE
 40
2448315.373408102
  9
$TDUPDATE
 40
2452237.480555069
  9
$TDINDWG
 40
0.0013019792
  9
$TDUSRTIMER
 40
0.0012950231
  9
$USRTIMER
 70
     1
  9
$ANGBASE
 50
0.0
  9
$ANGDIR
 70
     0
  9
$PDMODE
 70
     0
  9
$PDSIZE
 40
0.0
  9
$PLINEWID
 40
0.0
  9
$COORDS
 70
     1
  9
$SPLFRAME
 70
     0
  9
$SPLINETYPE
 70
     6
  9
$SPLINESEGS
 70
     8
  9
$ATTDIA
 70
     0
  9
$ATTREQ
 70
     1
  9
$HANDLING
 70
  4097
  9
$HANDSEED
  5
AA
  9
$SURFTAB1
 70
     6
  9
$SURFTAB2
 70
     6
  9
$SURFTYPE
 70
     6
  9
$SURFU
 70
     6
  9
$SURFV
 70
     6
  9
$UCSNAME
  2

  9
$UCSORG
 10
0.0
 20
0.0
 30
0.0
  9
$UCSXDIR
 10
1.0
 20
0.0
 30
0.0
  9
$UCSYDIR
 10
0.0
 20
1.0
 30
0.0
  9
$PUCSNAME
  2

  9
$PUCSORG
 10
0.0
 20
0.0
 30
0.0
  9
$PUCSXDIR
 10
1.0
 20
0.0
 30
0.0
  9
$PUCSYDIR
 10
0.0
 20
1.0
 30
0.0
  9
$USERI1
 70
     0
  9
$USERI2
 70
     0
  9
$USERI3
 70
     0
  9
$USERI4
 70
     0
  9
$USERI5
 70
     0
  9
$USERR1
 40
0.0
  9
$USERR2
 40
0.0
  9
$USERR3
 40
0.0
  9
$USERR4
 40
0.0
  9
$USERR5
 40
0.0
  9
$WORLDVIEW
 70
     1
  9
$SHADEDGE
 70
     3
  9
$SHADEDIF
 70
    70
  9
$TILEMODE
 70
     1
  9
$MAXACTVP
 70
    16
  9
$PINSBASE
 10
0.0
 20
0.0
 30
0.0
  9
$PLIMCHECK
 70
     0
  9
$PEXTMIN
 10
1.000000000000000E+20
 20
1.000000000000000E+20
 30
1.000000000000000E+20
  9
$PEXTMAX
 10
-1.000000000000000E+20
 20
-1.000000000000000E+20
 30
-1.000000000000000E+20
  9
$PLIMMIN
 10
0.0
 20
0.0
  9
$PLIMMAX
 10
12.0
 20
9.0
  9
$UNITMODE
 70
     0
  9
$VISRETAIN
 70
     0
  9
$PLINEGEN
 70
     0
  9
$PSLTSCALE
 70
     1
  9
$TREEDEPTH
 70
  3020
  9
$PICKSTYLE
 70
     1
  9
$CMLSTYLE
  2
STANDARD
  9
$CMLJUST
 70
     0
  9
$CMLSCALE
 40
1.0
  9
$PROXYGRAPHICS
 70
     1
  9
$MEASUREMENT
 70
     0
  0
ENDSEC
  0
SECTION
  2
CLASSES
  0
CLASS
  1
ACDBDICTIONARYWDFLT
  2
AcDbDictionaryWithDefault
  3
AutoCAD 2000
 90
        0
280
     0
281
     0
  0
CLASS
  1
ACDBPLACEHOLDER
  2
AcDbPlaceHolder
  3
AutoCAD 2000
 90
        0
280
     0
281
     0
  0
CLASS
  1
LAYOUT
  2
AcDbLayout
  3
AutoCAD 2000
 90
        0
280
     0
281
     0
  0
CLASS
  1
LONG_TRANSACTION
  2
AcDbLongTransaction
  3
AutoCAD 2000
 90
        0
280
     0
281
     0
  0
CLASS
  1
LWPOLYLINE
  2
AcDbPolyline
  3
AutoCAD 2000
 90
        0
280
     0
281
     1
  0
CLASS
  1
HATCH
  2
AcDbHatch
  3
AutoCAD 2000
 90
        0
280
     0
281
     1
  0
CLASS
  1
XRECORD
  2
AcDbXrecord
  3
AutoCAD 2000
 90
        0
280
     0
281
     0
  0
ENDSEC
  0
SECTION
  2
TABLES
  0
TABLE
  2
VPORT
  5
8
330
0
100
AcDbSymbolTable
 70
     3
  0
VPORT
  5
85
330
8
100
AcDbSymbolTableRecord
100
AcDbViewportTableRecord
  2
*ACTIVE
 70
     0
 10
0.0
 20
0.0
 11
1.0
 21
1.0
 12
286.6460000291038
 22
37.32202864771525
 13
0.0
 23
0.0
 14
1.0
 24
1.0
 15
0.0
 25
0.0
 16
0.0
 26
0.0
 36
1.0
 17
0.0
 27
0.0
 37
0.0
 40
14.95787952667726
 41
1.448317307692307
 42
50.0
 43
0.0
 44
0.0
 50
0.0
 51
0.0
 71
     0
 72
   100
 73
     1
 74
     1
 75
     0
 76
     0
 77
     0
 78
     0
  0
ENDTAB
  0
TABLE
  2
LTYPE
  5
5
330
0
100
AcDbSymbolTable
 70
     1
  0
LTYPE
  5
13
330
5
100
AcDbSymbolTableRecord
100
AcDbLinetypeTableRecord
  2
BYBLOCK
 70
     0
  3

 72
    65
 73
     0
 40
0.0
  0
LTYPE
  5
14
330
5
100
AcDbSymbolTableRecord
100
AcDbLinetypeTableRecord
  2
BYLAYER
 70
     0
  3

 72
    65
 73
     0
 40
0.0
  0
LTYPE
  5
15
330
5
100
AcDbSymbolTableRecord
100
AcDbLinetypeTableRecord
  2
CONTINUOUS
 70
     0
  3
Solid line
 72
    65
 73
     0
 40
0.0
  0
ENDTAB
  0
TABLE
  2
LAYER
  5
2
330
0
100
AcDbSymbolTable
 70
     7
  0
LAYER
  5
10
330
2
100
AcDbSymbolTableRecord
100
AcDbLayerTableRecord
  2
0
 70
     0
 62
     7
  6
CONTINUOUS
  0
LAYER
  5
22
330
2
100
AcDbSymbolTableRecord
100
AcDbLayerTableRecord
  2
1
 70
     0
 62
     7
  6
CONTINUOUS
  0
LAYER
  5
23
330
2
100
AcDbSymbolTableRecord
100
AcDbLayerTableRecord
  2
7
 70
     0
 62
     7
  6
CONTINUOUS
  0
LAYER
  5
24
330
2
100
AcDbSymbolTableRecord
100
AcDbLayerTableRecord
  2
8
 70
     0
 62
     7
  6
CONTINUOUS
  0
LAYER
  5
25
330
2
100
AcDbSymbolTableRecord
100
AcDbLayerTableRecord
  2
9
 70
     0
 62
     7
  6
CONTINUOUS
  0
LAYER
  5
26
330
2
100
AcDbSymbolTableRecord
100
AcDbLayerTableRecord
  2
22
 70
     0
 62
     7
  6
CONTINUOUS
  0
LAYER
  5
27
330
2
100
AcDbSymbolTableRecord
100
AcDbLayerTableRecord
  2
25
 70
     0
 62
     7
  6
CONTINUOUS
  0
ENDTAB
  0
TABLE
  2
STYLE
  5
3
330
0
100
AcDbSymbolTable
 70
     2
  0
STYLE
  5
11
330
3
100
AcDbSymbolTableRecord
100
AcDbTextStyleTableRecord
  2
STANDARD
 70
     0
 40
0.0
 41
1.0
 50
0.0
 71
     0
 42
0.2
  3
txt
  4

  0
STYLE
  5
28
330
3
100
AcDbSymbolTableRecord
100
AcDbTextStyleTableRecord
  2
ROMANC
 70
     0
 40
0.0
 41
1.0
 50
0.0
 71
     0
 42
0.2
  3
ROMANC
  4

  0
ENDTAB
  0
TABLE
  2
VIEW
  5
6
330
0
100
AcDbSymbolTable
 70
     0
  0
ENDTAB
  0
TABLE
  2
UCS
  5
7
330
0
100
AcDbSymbolTable
 70
     0
  0
ENDTAB
  0
TABLE
  2
APPID
  5
9
330
0
100
AcDbSymbolTable
 70
     1
  0
APPID
  5
12
330
9
100
AcDbSymbolTableRecord
100
AcDbRegAppTableRecord
  2
ACAD
 70
     0
  0
ENDTAB
  0
TABLE
  2
DIMSTYLE
  5
A
330
0
100
AcDbSymbolTable
 70
     1
  0
DIMSTYLE
105
5E
330
A
100
AcDbSymbolTableRecord
100
AcDbDimStyleTableRecord
  2
STANDARD
 70
     0
  3

  4

  5

  6

  7

 40
1.0
 41
0.18
 42
0.0625
 43
0.38
 44
0.18
 45
0.0
 46
0.0
 47
0.0
 48
0.0
140
0.18
141
0.09
142
0.0
143
25.4
144
1.0
145
0.0
146
1.0
147
0.09
 71
     0
 72
     0
 73
     1
 74
     1
 75
     0
 76
     0
 77
     0
 78
     0
170
     0
171
     2
172
     0
173
     0
174
     0
175
     0
176
     0
177
     0
178
     0
270
     2
271
     4
272
     4
273
     2
274
     2
340
11
275
     0
280
     0
281
     0
282
     0
283
     1
284
     0
285
     0
286
     0
287
     3
288
     0
  0
ENDTAB
  0
TABLE
  2
BLOCK_RECORD
  5
1
330
0
100
AcDbSymbolTable
 70
     0
  0
BLOCK_RECORD
  5
1E
102
{ACAD_XDICTIONARY
360
A8
102
}
330
1
100
AcDbSymbolTableRecord
100
AcDbBlockTableRecord
  2
*MODEL_SPACE
  0
BLOCK_RECORD
  5
1A
102
{ACAD_XDICTIONARY
360
A6
102
}
330
1
100
AcDbSymbolTableRecord
100
AcDbBlockTableRecord
  2
*PAPER_SPACE
  0
ENDTAB
  0
ENDSEC
  0
SECTION
  2
BLOCKS
  0
BLOCK
  5
1F
330
1E
100
AcDbEntity
  8
0
100
AcDbBlockBegin
  2
*MODEL_SPACE
 70
     0
 10
0.0
 20
0.0
 30
0.0
  3
*MODEL_SPACE
  1

  0
ENDBLK
  5
20
330
1E
100
AcDbEntity
  8
0
100
AcDbBlockEnd
  0
BLOCK
  5
1B
330
1A
100
AcDbEntity
 67
     1
  8
0
100
AcDbBlockBegin
  2
*PAPER_SPACE
 70
     0
 10
0.0
 20
0.0
 30
0.0
  3
*PAPER_SPACE
  1

  0
ENDBLK
  5
1C
330
1A
100
AcDbEntity
 67
     1
  8
0
100
AcDbBlockEnd
  0
ENDSEC
  0
SECTION
  2
ENTITIES
  0
TEXT
  5
2C
330
1E
100
AcDbEntity
  8
0
  6
CONTINUOUS
100
AcDbText
 10
287.6634593802788
 20
41.01873719229802
 30
0.0
 40
0.1
  1
2
  7
ROMANC
100
AcDbText
  0
TEXT
  5
2D
330
1E
100
AcDbEntity
  8
0
  6
CONTINUOUS
100
AcDbText
 10
284.6804593802788
 20
41.46273719229802
 30
0.0
 40
0.3
  1
ESCALA  1:50
  7
ROMANC
100
AcDbText
  0
LWPOLYLINE
  5
2E
330
1E
100
AcDbEntity
  8
0
  6
CONTINUOUS
100
AcDbPolyline
 90
        4
 70
     1
 43
0.0
 10
281.396
 20
44.747
 10
291.896
 20
44.747
 10
291.896
 20
29.897
 10
281.396
 20
29.897
  0
TEXT
  5
34
330
1E
100
AcDbEntity
  8
0
  6
CONTINUOUS
100
AcDbText
 10
284.6804593802788
 20
42.07573719229801
 30
0.0
 40
0.3
  1
TIPUS   T496
  7
ROMANC
100
AcDbText
  0
LINE
  5
35
330
1E
100
AcDbEntity
  8
1
  6
CONTINUOUS
100
AcDbLine
 10
285.1338433814373
 20
34.8241461295013
 30
0.0
 11
285.1338433814373
 21
35.7241461295013
 31
0.0
  0
TEXT
  5
36
330
1E
100
AcDbEntity
  8
0
  6
CONTINUOUS
100
AcDbText
 10
284.6764593802788
 20
40.22373719229802
 30
0.0
 40
0.3
  1
P = 84 dm
  7
ROMANC
100
AcDbText
  0
TEXT
  5
37
330
1E
100
AcDbEntity
  8
0
  6
CONTINUOUS
100
AcDbText
 10
284.6994593802788
 20
40.79373719229802
 30
0.0
 40
0.3
  1
S = 496 dm
  7
ROMANC
100
AcDbText
  0
LINE
  5
38
330
1E
100
AcDbEntity
  8
1
  6
CONTINUOUS
100
AcDbLine
 10
287.6338433814373
 20
34.8241461295013
 30
0.0
 11
285.1338433814373
 21
34.8241461295013
 31
0.0
  0
TEXT
  5
39
330
1E
100
AcDbEntity
  8
1
  6
CONTINUOUS
100
AcDbText
 10
286.2648433814373
 20
34.57214612950131
 30
0.0
 40
0.075
  1
2.50
  7
ROMANC
100
AcDbText
  0
LINE
  5
3A
330
1E
100
AcDbEntity
  8
1
  6
CONTINUOUS
100
AcDbLine
 10
286.2268433814373
 20
34.61014612950131
 30
0.0
 11
285.1338433814373
 21
34.61014612950131
 31
0.0
  0
LINE
  5
3B
330
1E
100
AcDbEntity
  8
1
  6
CONTINUOUS
100
AcDbLine
 10
286.5388433814373
 20
34.61014612950131
 30
0.0
 11
287.6338433814373
 21
34.61014612950131
 31
0.0
  0
LINE
  5
3C
330
1E
100
AcDbEntity
  8
1
  6
CONTINUOUS
100
AcDbLine
 10
285.0968433814373
 20
34.59114612950131
 30
0.0
 11
285.1708433814373
 21
34.62914612950131
 31
0.0
  0
LINE
  5
3D
330
1E
100
AcDbEntity
  8
1
  6
CONTINUOUS
100
AcDbLine
 10
287.6708433814373
 20
34.62914612950131
 30
0.0
 11
287.5968433814373
 21
34.59114612950131
 31
0.0
  0
LINE
  5
3E
330
1E
100
AcDbEntity
  8
1
  6
CONTINUOUS
100
AcDbLine
 10
285.1338433814373
 20
34.78614612950131
 30
0.0
 11
285.1338433814373
 21
34.57214612950131
 31
0.0
  0
LINE
  5
3F
330
1E
100
AcDbEntity
  8
1
  6
CONTINUOUS
100
AcDbLine
 10
287.6338433814373
 20
34.78614612950131
 30
0.0
 11
287.6338433814373
 21
34.57214612950131
 31
0.0
  0
LINE
  5
40
330
1E
100
AcDbEntity
  8
1
  6
CONTINUOUS
100
AcDbLine
 10
287.6338433814373
 20
35.7241461295013
 30
0.0
 11
287.6338433814373
 21
34.8241461295013
 31
0.0
  0
TEXT
  5
41
330
1E
100
AcDbEntity
  8
1
  6
CONTINUOUS
100
AcDbText
 10
287.9188433814373
 20
35.15514612950131
 30
0.0
 40
0.075
  1
0.90
 50
90.0
  7
ROMANC
100
AcDbText
  0
LINE
  5
42
330
1E
100
AcDbEntity
  8
1
  6
CONTINUOUS
100
AcDbLine
 10
287.8818433814373
 20
35.11714612950131
 30
0.0
 11
287.8818433814373
 21
34.8241461295013
 31
0.0
  0
LINE
  5
43
330
1E
100
AcDbEntity
  8
1
  6
CONTINUOUS
100
AcDbLine
 10
287.8818433814373
 20
35.42914612950131
 30
0.0
 11
287.8818433814373
 21
35.7241461295013
 31
0.0
  0
LINE
  5
44
330
1E
100
AcDbEntity
  8
1
  6
CONTINUOUS
100
AcDbLine
 10
287.9008433814373
 20
34.78614612950131
 30
0.0
 11
287.8628433814373
 21
34.86214612950131
 31
0.0
  0
LINE
  5
45
330
1E
100
AcDbEntity
  8
1
  6
CONTINUOUS
100
AcDbLine
 10
287.8628433814373
 20
35.76214612950131
 30
0.0
 11
287.9008433814373
 21
35.68614612950131
 31
0.0
  0
LINE
  5
46
330
1E
100
AcDbEntity
  8
1
  6
CONTINUOUS
100
AcDbLine
 10
287.6718433814373
 20
34.8241461295013
 30
0.0
 11
287.9198433814373
 21
34.8241461295013
 31
0.0
  0
LINE
  5
47
330
1E
100
AcDbEntity
  8
1
  6
CONTINUOUS
100
AcDbLine
 10
287.6718433814373
 20
35.7241461295013
 30
0.0
 11
287.9198433814373
 21
35.7241461295013
 31
0.0
  0
TEXT
  5
48
330
1E
100
AcDbEntity
  8
1
  6
CONTINUOUS
100
AcDbText
 10
287.9188433814373
 20
36.28914612950131
 30
0.0
 40
0.075
  1
1.35
 50
90.0
  7
ROMANC
100
AcDbText
  0
LINE
  5
49
330
1E
100
AcDbEntity
  8
1
  6
CONTINUOUS
100
AcDbLine
 10
287.8818433814373
 20
36.25114612950131
 30
0.0
 11
287.8818433814373
 21
35.7241461295013
 31
0.0
  0
LINE
  5
4A
330
1E
100
AcDbEntity
  8
1
  6
CONTINUOUS
100
AcDbLine
 10
287.8818433814373
 20
36.54614612950131
 30
0.0
 11
287.8818433814373
 21
37.07414612950131
 31
0.0
  0
LINE
  5
4B
330
1E
100
AcDbEntity
  8
1
  6
CONTINUOUS
100
AcDbLine
 10
287.9008433814373
 20
35.68614612950131
 30
0.0
 11
287.8628433814373
 21
35.76214612950131
 31
0.0
  0
LINE
  5
4C
330
1E
100
AcDbEntity
  8
1
  6
CONTINUOUS
100
AcDbLine
 10
287.8628433814373
 20
37.11214612950131
 30
0.0
 11
287.9008433814373
 21
37.03614612950131
 31
0.0
  0
LINE
  5
4D
330
1E
100
AcDbEntity
  8
1
  6
CONTINUOUS
100
AcDbLine
 10
286.4218433814373
 20
37.07414612950131
 30
0.0
 11
287.9198433814373
 21
37.07414612950131
 31
0.0
  0
ARC
  5
4E
330
1E
100
AcDbEntity
  8
1
  6
CONTINUOUS
100
AcDbCircle
 10
286.3838433814373
 20
35.82044212950131
 30
0.0
 40
1.253704
100
AcDbArc
 50
355.5948059999999
 51
184.4051969999999
  0
TEXT
  5
4F
330
1E
100
AcDbEntity
  8
1
  6
CONTINUOUS
100
AcDbText
 10
288.1008433814373
 20
35.83014612950131
 30
0.0
 40
0.075
  1
2.25
 50
90.0
  7
ROMANC
100
AcDbText
  0
LINE
  5
50
330
1E
100
AcDbEntity
  8
1
  6
CONTINUOUS
100
AcDbLine
 10
288.0628433814373
 20
35.79214612950131
 30
0.0
 11
288.0628433814373
 21
34.8241461295013
 31
0.0
  0
LINE
  5
51
330
1E
100
AcDbEntity
  8
1
  6
CONTINUOUS
100
AcDbLine
 10
288.0628433814373
 20
36.10414612950131
 30
0.0
 11
288.0628433814373
 21
37.07414612950131
 31
0.0
  0
LINE
  5
52
330
1E
100
AcDbEntity
  8
1
  6
CONTINUOUS
100
AcDbLine
 10
288.0818433814373
 20
34.78614612950131
 30
0.0
 11
288.0438433814373
 21
34.86214612950131
 31
0.0
  0
LINE
  5
53
330
1E
100
AcDbEntity
  8
1
  6
CONTINUOUS
100
AcDbLine
 10
288.0438433814373
 20
37.11214612950131
 30
0.0
 11
288.0818433814373
 21
37.03614612950131
 31
0.0
  0
LINE
  5
54
330
1E
100
AcDbEntity
  8
1
  6
CONTINUOUS
100
AcDbLine
 10
287.6718433814373
 20
34.8241461295013
 30
0.0
 11
288.1008433814373
 21
34.8241461295013
 31
0.0
  0
LINE
  5
55
330
1E
100
AcDbEntity
  8
1
  6
CONTINUOUS
100
AcDbLine
 10
286.4218433814373
 20
37.07414612950131
 30
0.0
 11
288.1008433814373
 21
37.07414612950131
 31
0.0
  0
ARC
  5
56
330
1E
100
AcDbEntity
  8
1
  6
CONTINUOUS
100
AcDbCircle
 10
286.3838433814373
 20
35.82044212950131
 30
0.0
 40
1.263704
100
AcDbArc
 50
355.5948059999999
 51
184.4051969999999
  0
ARC
  5
57
330
1E
100
AcDbEntity
  8
1
  6
CONTINUOUS
100
AcDbCircle
 10
286.3838433814373
 20
35.82044212950131
 30
0.0
 40
1.273704
100
AcDbArc
 50
355.5948059999999
 51
184.4051969999999
  0
LINE
  5
58
330
1E
100
AcDbEntity
  8
1
  6
CONTINUOUS
100
AcDbLine
 10
287.6438433814373
 20
35.7241461295013
 30
0.0
 11
287.6438433814373
 21
34.81414612950131
 31
0.0
  0
LINE
  5
59
330
1E
100
AcDbEntity
  8
1
  6
CONTINUOUS
100
AcDbLine
 10
287.6538433814373
 20
35.7241461295013
 30
0.0
 11
287.6538433814373
 21
34.80414612950131
 31
0.0
  0
LINE
  5
5A
330
1E
100
AcDbEntity
  8
1
  6
CONTINUOUS
100
AcDbLine
 10
287.6438433814373
 20
34.81414612950131
 30
0.0
 11
285.1238433814373
 21
34.81414612950131
 31
0.0
  0
LINE
  5
5B
330
1E
100
AcDbEntity
  8
1
  6
CONTINUOUS
100
AcDbLine
 10
287.6538433814373
 20
34.80414612950131
 30
0.0
 11
285.1138433814373
 21
34.80414612950131
 31
0.0
  0
LINE
  5
5C
330
1E
100
AcDbEntity
  8
1
  6
CONTINUOUS
100
AcDbLine
 10
285.1238433814373
 20
34.81414612950131
 30
0.0
 11
285.1238433814373
 21
35.7241461295013
 31
0.0
  0
LINE
  5
5D
330
1E
100
AcDbEntity
  8
1
  6
CONTINUOUS
100
AcDbLine
 10
285.1138433814373
 20
34.80414612950131
 30
0.0
 11
285.1138433814373
 21
35.7241461295013
 31
0.0
  0
ENDSEC
  0
SECTION
  2
OBJECTS
  0
DICTIONARY
  5
C
330
0
100
AcDbDictionary
  3
ACAD_GROUP
350
D
  3
ACAD_PLOTSTYLENAME
350
E
  3
ACAD_MLINESTYLE
350
16
  3
ACAD_PLOTSETTINGS
350
18
  3
ACAD_LAYOUT
350
19
  3
ACDBHEADERROUNDTRIPXREC
350
86
  0
DICTIONARY
  5
A8
330
1E
100
AcDbDictionary
280
     1
  3
ACAD_LAYOUTSELFREF
360
A9
  0
DICTIONARY
  5
A6
330
1A
100
AcDbDictionary
280
     1
  3
ACAD_LAYOUTSELFREF
360
A7
  0
DICTIONARY
  5
D
102
{ACAD_REACTORS
330
C
102
}
330
C
100
AcDbDictionary
  0
ACDBDICTIONARYWDFLT
  5
E
102
{ACAD_REACTORS
330
C
102
}
330
C
100
AcDbDictionary
281
     1
  3
Normal
350
F
100
AcDbDictionaryWithDefault
340
F
  0
DICTIONARY
  5
16
102
{ACAD_REACTORS
330
C
102
}
330
C
100
AcDbDictionary
  3
STANDARD
350
17
  0
DICTIONARY
  5
18
102
{ACAD_REACTORS
330
C
102
}
330
C
100
AcDbDictionary
  0
DICTIONARY
  5
19
102
{ACAD_REACTORS
330
C
102
}
330
C
100
AcDbDictionary
  0
DICTIONARY
  5
86
102
{ACAD_REACTORS
330
C
102
}
330
C
100
AcDbDictionary
  3
TSTACKALIGN
350
87
  3
TSTACKSIZE
350
88
  3
HYPERLINKBASE
350
89
  3
STYLESHEET
350
8A
  3
LAYOUTDICT
350
8B
  3
PLOTSETDICT
350
8C
  3
PLOTSTYLNAMDICT
350
8D
  3
LWETCUNION
350
8E
  3
INSUNITS
350
8F
  3
CEPSNTYPE
350
90
  3
FINGERPRINTGUID
350
91
  3
VERSIONGUID
350
92
  3
PSVPSCALE
350
93
  3
PUCSORTHOREF
350
94
  3
PUCSORTHOVIEW
350
95
  3
PUCSBASE
350
96
  3
PUCSORGTOP
350
97
  3
PUCSORGBOTTOM
350
98
  3
PUCSORGLEFT
350
99
  3
PUCSORGRIGHT
350
9A
  3
PUCSORGFRONT
350
9B
  3
PUCSORGBACK
350
9C
  3
UCSORTHOREF
350
9D
  3
UCSORTHOVIEW
350
9E
  3
UCSBASE
350
9F
  3
UCSORGTOP
350
A0
  3
UCSORGBOTTOM
350
A1
  3
UCSORGLEFT
350
A2
  3
UCSORGRIGHT
350
A3
  3
UCSORGFRONT
350
A4
  3
UCSORGBACK
350
A5
  0
XRECORD
  5
A9
102
{ACAD_REACTORS
330
A8
102
}
330
A8
100
AcDbXrecord
340
1E
  0
XRECORD
  5
A7
102
{ACAD_REACTORS
330
A6
102
}
330
A6
100
AcDbXrecord
340
1A
  0
ACDBPLACEHOLDER
  5
F
102
{ACAD_REACTORS
330
E
102
}
330
E
100
AcDbPlaceHolder
280
     0
  0
MLINESTYLE
  5
17
102
{ACAD_REACTORS
330
16
102
}
330
16
100
AcDbMlineStyle
  2
STANDARD
 70
     0
  3

 62
   256
 51
90.0
 52
90.0
 71
     2
 49
0.5
 62
   256
  6
BYLAYER
 49
-0.5
 62
   256
  6
BYLAYER
  0
XRECORD
  5
87
102
{ACAD_REACTORS
330
86
102
}
330
86
100
AcDbXrecord
 90
        1
  0
XRECORD
  5
88
102
{ACAD_REACTORS
330
86
102
}
330
86
100
AcDbXrecord
 90
       70
  0
XRECORD
  5
89
102
{ACAD_REACTORS
330
86
102
}
330
86
100
AcDbXrecord
  1

  0
XRECORD
  5
8A
102
{ACAD_REACTORS
330
86
102
}
330
86
100
AcDbXrecord
  1

  0
XRECORD
  5
8B
102
{ACAD_REACTORS
330
86
102
}
330
86
100
AcDbXrecord
340
19
  0
XRECORD
  5
8C
102
{ACAD_REACTORS
330
86
102
}
330
86
100
AcDbXrecord
340
18
  0
XRECORD
  5
8D
102
{ACAD_REACTORS
330
86
102
}
330
86
100
AcDbXrecord
340
E
  0
XRECORD
  5
8E
102
{ACAD_REACTORS
330
86
102
}
330
86
100
AcDbXrecord
 90
    10781
  0
XRECORD
  5
8F
102
{ACAD_REACTORS
330
86
102
}
330
86
100
AcDbXrecord
 90
        0
  0
XRECORD
  5
90
102
{ACAD_REACTORS
330
86
102
}
330
86
100
AcDbXrecord
 90
        0
  0
XRECORD
  5
91
102
{ACAD_REACTORS
330
86
102
}
330
86
100
AcDbXrecord
  1
{544BBB0C-C353-4187-9820-D5CF71DA7643}
  0
XRECORD
  5
92
102
{ACAD_REACTORS
330
86
102
}
330
86
100
AcDbXrecord
  1
{51EA7AC9-35CB-4DE3-B617-8BAC75FEC579}
  0
XRECORD
  5
93
102
{ACAD_REACTORS
330
86
102
}
330
86
100
AcDbXrecord
 40
0.0
  0
XRECORD
  5
94
102
{ACAD_REACTORS
330
86
102
}
330
86
100
AcDbXrecord
340
0
  0
XRECORD
  5
95
102
{ACAD_REACTORS
330
86
102
}
330
86
100
AcDbXrecord
 70
     0
  0
XRECORD
  5
96
102
{ACAD_REACTORS
330
86
102
}
330
86
100
AcDbXrecord
340
0
  0
XRECORD
  5
97
102
{ACAD_REACTORS
330
86
102
}
330
86
100
AcDbXrecord
 10
0.0
 20
0.0
 30
0.0
  0
XRECORD
  5
98
102
{ACAD_REACTORS
330
86
102
}
330
86
100
AcDbXrecord
 10
0.0
 20
0.0
 30
0.0
  0
XRECORD
  5
99
102
{ACAD_REACTORS
330
86
102
}
330
86
100
AcDbXrecord
 10
0.0
 20
0.0
 30
0.0
  0
XRECORD
  5
9A
102
{ACAD_REACTORS
330
86
102
}
330
86
100
AcDbXrecord
 10
0.0
 20
0.0
 30
0.0
  0
XRECORD
  5
9B
102
{ACAD_REACTORS
330
86
102
}
330
86
100
AcDbXrecord
 10
0.0
 20
0.0
 30
0.0
  0
XRECORD
  5
9C
102
{ACAD_REACTORS
330
86
102
}
330
86
100
AcDbXrecord
 10
0.0
 20
0.0
 30
0.0
  0
XRECORD
  5
9D
102
{ACAD_REACTORS
330
86
102
}
330
86
100
AcDbXrecord
340
0
  0
XRECORD
  5
9E
102
{ACAD_REACTORS
330
86
102
}
330
86
100
AcDbXrecord
 70
     0
  0
XRECORD
  5
9F
102
{ACAD_REACTORS
330
86
102
}
330
86
100
AcDbXrecord
340
0
  0
XRECORD
  5
A0
102
{ACAD_REACTORS
330
86
102
}
330
86
100
AcDbXrecord
 10
0.0
 20
0.0
 30
0.0
  0
XRECORD
  5
A1
102
{ACAD_REACTORS
330
86
102
}
330
86
100
AcDbXrecord
 10
0.0
 20
0.0
 30
0.0
  0
XRECORD
  5
A2
102
{ACAD_REACTORS
330
86
102
}
330
86
100
AcDbXrecord
 10
0.0
 20
0.0
 30
0.0
  0
XRECORD
  5
A3
102
{ACAD_REACTORS
330
86
102
}
330
86
100
AcDbXrecord
 10
0.0
 20
0.0
 30
0.0
  0
XRECORD
  5
A4
102
{ACAD_REACTORS
330
86
102
}
330
86
100
AcDbXrecord
 10
0.0
 20
0.0
 30
0.0
  0
XRECORD
  5
A5
102
{ACAD_REACTORS
330
86
102
}
330
86
100
AcDbXrecord
 10
0.0
 20
0.0
 30
0.0
  0
ENDSEC
  0
EOF
