  0
SECTION
  2
HEADER
  9
$ACADVER
  1
AC1009
  9
$INSBASE
 10
0.0
 20
0.0
 30
0.0
  9
$EXTMIN
 10
281.396000
 20
29.897000
 30
-2147483.648000
  9
$EXTMAX
 10
291.896000
 20
44.747000
 30
0.000000
  9
$LIMMIN
 10
280.396000
 20
28.897000
  9
$LIMMAX
 10
292.896000
 20
43.747000
  9
$ORTHOMODE
 70
     0
  9
$REGENMODE
 70
     1
  9
$FILLMODE
 70
     1
  9
$QTEXTMODE
 70
     0
  9
$MIRRTEXT
 70
     1
  9
$DRAGMODE
 70
     2
  9
$LTSCALE
 40
1.0
  9
$OSMODE
 70
     0
  9
$ATTMODE
 70
     1
  9
$TEXTSIZE
 40
0.2
  9
$TRACEWID
 40
0.05
  9
$TEXTSTYLE
  7
STANDARD
  9
$CLAYER
  8
0
  9
$CELTYPE
  6
BYLAYER
  9
$CECOLOR
 62
   256
  9
$DIMSCALE
 40
1.0
  9
$DIMASZ
 40
0.18
  9
$DIMEXO
 40
0.0625
  9
$DIMDLI
 40
0.38
  9
$DIMRND
 40
0.0
  9
$DIMDLE
 40
0.0
  9
$DIMEXE
 40
0.18
  9
$DIMTP
 40
0.0
  9
$DIMTM
 40
0.0
  9
$DIMTXT
 40
0.18
  9
$DIMCEN
 40
0.09
  9
$DIMTSZ
 40
0.0
  9
$DIMTOL
 70
     0
  9
$DIMLIM
 70
     0
  9
$DIMTIH
 70
     1
  9
$DIMTOH
 70
     1
  9
$DIMSE1
 70
     0
  9
$DIMSE2
 70
     0
  9
$DIMTAD
 70
     0
  9
$DIMZIN
 70
     0
  9
$DIMBLK
  1

  9
$DIMASO
 70
     1
  9
$DIMSHO
 70
     1
  9
$DIMPOST
  1

  9
$DIMAPOST
  1

  9
$DIMALT
 70
     0
  9
$DIMALTD
 70
     2
  9
$DIMALTF
 40
25.4
  9
$DIMLFAC
 40
1.0
  9
$DIMTOFL
 70
     0
  9
$DIMTVP
 40
0.0
  9
$DIMTIX
 70
     0
  9
$DIMSOXD
 70
     0
  9
$DIMSAH
 70
     0
  9
$DIMBLK1
  1

  9
$DIMBLK2
  1

  9
$DIMSTYLE
  2
*UNNAMED
  9
$DIMCLRD
 70
     0
  9
$DIMCLRE
 70
     0
  9
$DIMCLRT
 70
     0
  9
$DIMTFAC
 40
1.0
  9
$DIMGAP
 40
0.09
  9
$LUNITS
 70
     2
  9
$LUPREC
 70
     4
  9
$AXISMODE
 70
     0
  9
$AXISUNIT
 10
0.0
 20
0.0
  9
$SKETCHINC
 40
0.1
  9
$FILLETRAD
 40
0.0
  9
$AUNITS
 70
     0
  9
$AUPREC
 70
     0
  9
$MENU
  1
acad
  9
$ELEVATION
 40
0.0
  9
$PELEVATION
 40
0.0
  9
$THICKNESS
 40
0.0
  9
$LIMCHECK
 70
     0
  9
$BLIPMODE
 70
     1
  9
$CHAMFERA
 40
0.0
  9
$CHAMFERB
 40
0.0
  9
$SKPOLY
 70
     0
  9
$TDCREATE
 40
2448315.373408102
  9
$TDUPDATE
 40
2448315.373408102
  9
$TDINDWG
 40
0.0000000000
  9
$TDUSRTIMER
 40
0.0000000000
  9
$USRTIMER
 70
     1
  9
$ANGBASE
 50
0.0
  9
$ANGDIR
 70
     0
  9
$PDMODE
 70
     0
  9
$PDSIZE
 40
0.0
  9
$PLINEWID
 40
0.0
  9
$COORDS
 70
     0
  9
$SPLFRAME
 70
     0
  9
$SPLINETYPE
 70
     6
  9
$SPLINESEGS
 70
     8
  9
$ATTDIA
 70
     0
  9
$ATTREQ
 70
     1
  9
$HANDLING
 70
     0
  9
$HANDSEED
  5
0
  9
$SURFTAB1
 70
     6
  9
$SURFTAB2
 70
     6
  9
$SURFTYPE
 70
     6
  9
$SURFU
 70
     6
  9
$SURFV
 70
     6
  9
$UCSNAME
  2

  9
$UCSORG
 10
0.0
 20
0.0
 30
0.0
  9
$UCSXDIR
 10
1.0
 20
0.0
 30
0.0
  9
$UCSYDIR
 10
0.0
 20
1.0
 30
0.0
  9
$PUCSNAME
  2

  9
$PUCSORG
 10
0.0
 20
0.0
 30
0.0
  9
$PUCSXDIR
 10
1.0
 20
0.0
 30
0.0
  9
$PUCSYDIR
 10
0.0
 20
1.0
 30
0.0
  9
$USERI1
 70
     0
  9
$USERI2
 70
     0
  9
$USERI3
 70
     0
  9
$USERI4
 70
     0
  9
$USERI5
 70
     0
  9
$USERR1
 40
0.0
  9
$USERR2
 40
0.0
  9
$USERR3
 40
0.0
  9
$USERR4
 40
0.0
  9
$USERR5
 40
0.0
  9
$WORLDVIEW
 70
     1
  9
$SHADEDGE
 70
     3
  9
$SHADEDIF
 70
    70
  9
$TILEMODE
 70
     1
  9
$MAXACTVP
 70
    16
  9
$PINSBASE
 10
0.0
 20
0.0
 30
0.0
  9
$PLIMCHECK
 70
     0
  9
$PEXTMIN
 10
1.000000E+20
 20
1.000000E+20
 30
1.000000E+20
  9
$PEXTMAX
 10
-1.000000E+20
 20
-1.000000E+20
 30
-1.000000E+20
  9
$PLIMMIN
 10
0.0
 20
0.0
  9
$PLIMMAX
 10
12.0
 20
9.0
  9
$UNITMODE
 70
     0
  9
$VISRETAIN
 70
     0
  0
ENDSEC
  0
SECTION
  2
TABLES
  0
TABLE
  2
LTYPE
 70
    1
  0
LTYPE
  2
CONTINUOUS
 70
    64
3
Solid line
 72
    65
 73
0
 40
0.000000
  0
ENDTAB
  0
TABLE
  2
LAYER
 70
    8
  0
LAYER
  2
0
 70
    64
 62
7
  6
CONTINUOUS
  0
LAYER
  2
1
 70
    64
 62
7
  6
CONTINUOUS
  0
LAYER
  2
7
 70
    64
 62
7
  6
CONTINUOUS
  0
LAYER
  2
8
 70
    64
 62
7
  6
CONTINUOUS
  0
LAYER
  2
9
 70
    64
 62
7
  6
CONTINUOUS
  0
LAYER
  2
22
 70
    64
 62
7
  6
CONTINUOUS
  0
LAYER
  2
25
 70
    64
 62
7
  6
CONTINUOUS
  0
LAYER
  2
0
 70
    64
 62
7
  6
CONTINUOUS
  0
ENDTAB
  0
TABLE
  2
STYLE
 70
    1
  0
STYLE
  2
ROMANC
70
     0
 40
0.0
 41
1.0
 50
0.0
 71
     0
 42
0.2
  3
ROMANC
  4

  0
ENDTAB
  0
ENDSEC
  0
SECTION
  2
BLOCKS
  0
ENDSEC
  0
SECTION
  2
ENTITIES
  0
TEXT
  8
0
  6
CONTINUOUS
 40
0.100000
 10
286.909000
 20
41.324000
  1
2
  7
ROMANC
  0
TEXT
  8
0
  6
CONTINUOUS
 40
0.300000
 10
283.926000
 20
41.768000
  1
ESCALA  1:50
  7
ROMANC
  0
POLYLINE
  8
0
  6
CONTINUOUS
 66
     1
 70
     1
  0
VERTEX
  8
0
  6
CONTINUOUS
 10
281.396000
 20
44.747000
  0
VERTEX
  8
0
  6
CONTINUOUS
 10
291.896000
 20
44.747000
  0
VERTEX
  8
0
  6
CONTINUOUS
 10
291.896000
 20
29.897000
  0
VERTEX
  8
0
  6
CONTINUOUS
 10
281.396000
 20
29.897000
  0
SEQEND
  8
0
  0
TEXT
  8
0
  6
CONTINUOUS
 40
0.300000
 10
283.926000
 20
42.381000
  1
TIPUS   T473
  7
ROMANC
  0
ARC
  8
1
  6
CONTINUOUS
 10
288.598412
 20
32.811835
 40
0.230143
 50
299.227192
 51
375.671017
  0
LINE
  8
1
  6
CONTINUOUS
 10
288.711000
 20
32.611000
 11
287.101000
 21
32.549000
  0
ARC
  8
1
  6
CONTINUOUS
 10
286.901000
 20
32.549000
 40
0.200000
 50
180.000000
 51
360.000000
  0
LINE
  8
1
  6
CONTINUOUS
 10
286.701000
 20
32.549000
 11
285.087000
 21
32.612000
  0
ARC
  8
1
  6
CONTINUOUS
 10
285.203588
 20
32.809835
 40
0.230143
 50
165.355458
 51
239.273833
  0
TEXT
  8
0
  6
CONTINUOUS
 40
0.300000
 10
283.922000
 20
40.529000
  1
P = 93 dm
  7
ROMANC
  0
TEXT
  8
0
  6
CONTINUOUS
 40
0.300000
 10
283.945000
 20
41.099000
  1
S = 472 dm
  7
ROMANC
  0
TEXT
  8
1
  6
CONTINUOUS
 40
0.075000
 10
286.782000
 20
32.016000
  1
3.86
  7
ROMANC
  0
LINE
  8
1
  6
CONTINUOUS
 10
286.744000
 20
32.054000
 11
284.971000
 21
32.054000
  0
LINE
  8
1
  6
CONTINUOUS
 10
287.056000
 20
32.054000
 11
288.831000
 21
32.054000
  0
LINE
  8
1
  6
CONTINUOUS
 10
284.934000
 20
32.035000
 11
285.008000
 21
32.073000
  0
LINE
  8
1
  6
CONTINUOUS
 10
288.868000
 20
32.073000
 11
288.794000
 21
32.035000
  0
LINE
  8
1
  6
CONTINUOUS
 10
284.971000
 20
32.578000
 11
284.971000
 21
32.016000
  0
LINE
  8
1
  6
CONTINUOUS
 10
288.831000
 20
32.578000
 11
288.831000
 21
32.016000
  0
TEXT
  8
1
  6
CONTINUOUS
 40
0.075000
 10
286.779000
 20
32.194000
  1
0.40
  7
ROMANC
  0
LINE
  8
1
  6
CONTINUOUS
 10
286.551000
 20
32.232000
 11
286.701000
 21
32.232000
  0
LINE
  8
1
  6
CONTINUOUS
 10
287.251000
 20
32.232000
 11
287.101000
 21
32.232000
  0
LINE
  8
1
  6
CONTINUOUS
 10
286.738000
 20
32.251000
 11
286.664000
 21
32.213000
  0
LINE
  8
1
  6
CONTINUOUS
 10
287.064000
 20
32.213000
 11
287.138000
 21
32.251000
  0
LINE
  8
1
  6
CONTINUOUS
 10
286.701000
 20
32.511000
 11
286.701000
 21
32.194000
  0
LINE
  8
1
  6
CONTINUOUS
 10
287.101000
 20
32.511000
 11
287.101000
 21
32.194000
  0
TEXT
  8
1
  6
CONTINUOUS
 40
0.075000
 10
288.978000
 20
32.019000
  1
0.20
 50
90.000000
  7
ROMANC
  0
LINE
  8
1
  6
CONTINUOUS
 10
288.941000
 20
32.369000
 11
288.941000
 21
32.349000
  0
LINE
  8
1
  6
CONTINUOUS
 10
288.941000
 20
32.699000
 11
288.941000
 21
32.549000
  0
LINE
  8
1
  6
CONTINUOUS
 10
288.960000
 20
32.312000
 11
288.922000
 21
32.386000
  0
LINE
  8
1
  6
CONTINUOUS
 10
288.960000
 20
32.512000
 11
288.922000
 21
32.586000
  0
LINE
  8
1
  6
CONTINUOUS
 10
286.939000
 20
32.349000
 11
288.979000
 21
32.349000
  0
LINE
  8
1
  6
CONTINUOUS
 10
287.139000
 20
32.549000
 11
288.979000
 21
32.549000
  0
TEXT
  8
1
  6
CONTINUOUS
 40
0.075000
 10
289.090000
 20
32.894000
  1
0.06
 50
90.000000
  7
ROMANC
  0
LINE
  8
1
  6
CONTINUOUS
 10
289.052000
 20
32.399000
 11
289.052000
 21
32.549000
  0
LINE
  8
1
  6
CONTINUOUS
 10
289.052000
 20
32.856000
 11
289.052000
 21
32.611000
  0
LINE
  8
1
  6
CONTINUOUS
 10
289.033000
 20
32.586000
 11
289.071000
 21
32.512000
  0
LINE
  8
1
  6
CONTINUOUS
 10
289.071000
 20
32.574000
 11
289.033000
 21
32.648000
  0
LINE
  8
1
  6
CONTINUOUS
 10
287.139000
 20
32.549000
 11
289.090000
 21
32.549000
  0
LINE
  8
1
  6
CONTINUOUS
 10
288.749000
 20
32.611000
 11
289.090000
 21
32.611000
  0
ARC
  8
1
  6
CONTINUOUS
 10
286.901754
 20
32.068494
 40
2.080506
 50
22.778422
 51
157.400672
  0
TEXT
  8
1
  6
CONTINUOUS
 40
0.075000
 10
289.362000
 20
33.139000
  1
1.80
 50
90.000000
  7
ROMANC
  0
LINE
  8
1
  6
CONTINUOUS
 10
289.324000
 20
33.101000
 11
289.324000
 21
32.349000
  0
LINE
  8
1
  6
CONTINUOUS
 10
289.324000
 20
33.396000
 11
289.324000
 21
34.149000
  0
LINE
  8
1
  6
CONTINUOUS
 10
289.343000
 20
32.312000
 11
289.305000
 21
32.386000
  0
LINE
  8
1
  6
CONTINUOUS
 10
289.305000
 20
34.186000
 11
289.343000
 21
34.112000
  0
LINE
  8
1
  6
CONTINUOUS
 10
286.939000
 20
32.349000
 11
289.362000
 21
32.349000
  0
LINE
  8
1
  6
CONTINUOUS
 10
286.939000
 20
34.149000
 11
289.362000
 21
34.149000
  0
TEXT
  8
1
  6
CONTINUOUS
 40
0.075000
 10
289.218000
 20
33.267000
  1
1.54
 50
90.000000
  7
ROMANC
  0
LINE
  8
1
  6
CONTINUOUS
 10
289.181000
 20
33.229000
 11
289.181000
 21
32.611000
  0
LINE
  8
1
  6
CONTINUOUS
 10
289.181000
 20
33.531000
 11
289.181000
 21
34.149000
  0
LINE
  8
1
  6
CONTINUOUS
 10
289.200000
 20
32.574000
 11
289.162000
 21
32.648000
  0
LINE
  8
1
  6
CONTINUOUS
 10
289.162000
 20
34.186000
 11
289.200000
 21
34.112000
  0
LINE
  8
1
  6
CONTINUOUS
 10
288.749000
 20
32.611000
 11
289.219000
 21
32.611000
  0
LINE
  8
1
  6
CONTINUOUS
 10
286.939000
 20
34.149000
 11
289.219000
 21
34.149000
  0
ARC
  8
1
  6
CONTINUOUS
 10
286.901754
 20
32.068494
 40
2.090506
 50
22.778422
 51
157.400672
  0
ARC
  8
1
  6
CONTINUOUS
 10
286.901754
 20
32.068494
 40
2.100506
 50
22.778422
 51
157.454431
  0
ARC
  8
1
  6
CONTINUOUS
 10
288.598412
 20
32.811835
 40
0.240143
 50
298.652458
 51
375.671017
  0
ARC
  8
1
  6
CONTINUOUS
 10
288.598412
 20
32.811835
 40
0.250143
 50
298.112131
 51
375.671017
  0
LINE
  8
1
  6
CONTINUOUS
 10
288.714000
 20
32.601000
 11
287.111000
 21
32.539000
  0
LINE
  8
1
  6
CONTINUOUS
 10
288.716000
 20
32.591000
 11
287.120000
 21
32.530000
  0
ARC
  8
1
  6
CONTINUOUS
 10
286.901000
 20
32.549000
 40
0.210000
 50
182.635992
 51
357.373458
  0
ARC
  8
1
  6
CONTINUOUS
 10
286.901000
 20
32.549000
 40
0.220000
 50
185.031322
 51
354.976972
  0
LINE
  8
1
  6
CONTINUOUS
 10
286.691000
 20
32.539000
 11
285.083000
 21
32.602000
  0
LINE
  8
1
  6
CONTINUOUS
 10
286.682000
 20
32.530000
 11
285.080000
 21
32.592000
  0
ARC
  8
1
  6
CONTINUOUS
 10
285.203588
 20
32.809835
 40
0.240143
 50
165.355458
 51
239.881719
  0
ARC
  8
1
  6
CONTINUOUS
 10
285.203588
 20
32.809835
 40
0.250143
 50
165.168578
 51
240.451972
  0
ENDSEC
  0
EOF
