  0
SECTION
  2
HEADER
  9
$ACADVER
  1
AC1015
  9
$ACADMAINTVER
 70
     6
  9
$DWGCODEPAGE
  3
ANSI_1252
  9
$INSBASE
 10
0.0
 20
0.0
 30
0.0
  9
$EXTMIN
 10
281.3950692441341
 20
29.89657355491301
 30
-98.29650011472404
  9
$EXTMAX
 10
291.8969308140735
 20
44.74748374051749
 30
65.54100007656962
  9
$LIMMIN
 10
280.396
 20
28.89699999999999
  9
$LIMMAX
 10
292.896
 20
43.74699999999999
  9
$ORTHOMODE
 70
     0
  9
$REGENMODE
 70
     1
  9
$FILLMODE
 70
     1
  9
$QTEXTMODE
 70
     0
  9
$MIRRTEXT
 70
     1
  9
$LTSCALE
 40
1.0
  9
$ATTMODE
 70
     1
  9
$TEXTSIZE
 40
0.2
  9
$TRACEWID
 40
0.05
  9
$TEXTSTYLE
  7
Standard
  9
$CLAYER
  8
0
  9
$CELTYPE
  6
ByLayer
  9
$CECOLOR
 62
   256
  9
$CELTSCALE
 40
1.0
  9
$DISPSILH
 70
     0
  9
$DIMSCALE
 40
1.0
  9
$DIMASZ
 40
0.18
  9
$DIMEXO
 40
0.0625
  9
$DIMDLI
 40
0.38
  9
$DIMRND
 40
0.0
  9
$DIMDLE
 40
0.0
  9
$DIMEXE
 40
0.18
  9
$DIMTP
 40
0.0
  9
$DIMTM
 40
0.0
  9
$DIMTXT
 40
0.18
  9
$DIMCEN
 40
0.09
  9
$DIMTSZ
 40
0.0
  9
$DIMTOL
 70
     0
  9
$DIMLIM
 70
     0
  9
$DIMTIH
 70
     1
  9
$DIMTOH
 70
     1
  9
$DIMSE1
 70
     0
  9
$DIMSE2
 70
     0
  9
$DIMTAD
 70
     0
  9
$DIMZIN
 70
     0
  9
$DIMBLK
  1

  9
$DIMASO
 70
     1
  9
$DIMSHO
 70
     1
  9
$DIMPOST
  1

  9
$DIMAPOST
  1

  9
$DIMALT
 70
     0
  9
$DIMALTD
 70
     2
  9
$DIMALTF
 40
25.4
  9
$DIMLFAC
 40
1.0
  9
$DIMTOFL
 70
     0
  9
$DIMTVP
 40
0.0
  9
$DIMTIX
 70
     0
  9
$DIMSOXD
 70
     0
  9
$DIMSAH
 70
     0
  9
$DIMBLK1
  1

  9
$DIMBLK2
  1

  9
$DIMSTYLE
  2
Standard
  9
$DIMCLRD
 70
     0
  9
$DIMCLRE
 70
     0
  9
$DIMCLRT
 70
     0
  9
$DIMTFAC
 40
1.0
  9
$DIMGAP
 40
0.09
  9
$DIMJUST
 70
     0
  9
$DIMSD1
 70
     0
  9
$DIMSD2
 70
     0
  9
$DIMTOLJ
 70
     1
  9
$DIMTZIN
 70
     0
  9
$DIMALTZ
 70
     0
  9
$DIMALTTZ
 70
     0
  9
$DIMUPT
 70
     0
  9
$DIMDEC
 70
     4
  9
$DIMTDEC
 70
     4
  9
$DIMALTU
 70
     2
  9
$DIMALTTD
 70
     2
  9
$DIMTXSTY
  7
Standard
  9
$DIMAUNIT
 70
     0
  9
$DIMADEC
 70
     0
  9
$DIMALTRND
 40
0.0
  9
$DIMAZIN
 70
     0
  9
$DIMDSEP
 70
    46
  9
$DIMATFIT
 70
     3
  9
$DIMFRAC
 70
     0
  9
$DIMLDRBLK
  1

  9
$DIMLUNIT
 70
     2
  9
$DIMLWD
 70
    -2
  9
$DIMLWE
 70
    -2
  9
$DIMTMOVE
 70
     0
  9
$LUNITS
 70
     2
  9
$LUPREC
 70
     4
  9
$SKETCHINC
 40
0.1
  9
$FILLETRAD
 40
0.0
  9
$AUNITS
 70
     0
  9
$AUPREC
 70
     0
  9
$MENU
  1
acad
  9
$ELEVATION
 40
0.0
  9
$PELEVATION
 40
0.0
  9
$THICKNESS
 40
0.0
  9
$LIMCHECK
 70
     0
  9
$CHAMFERA
 40
0.0
  9
$CHAMFERB
 40
0.0
  9
$CHAMFERC
 40
0.0
  9
$CHAMFERD
 40
0.0
  9
$SKPOLY
 70
     0
  9
$TDCREATE
 40
2448315.373408102
  9
$TDUCREATE
 40
2448315.290074768
  9
$TDUPDATE
 40
2452536.736170243
  9
$TDUUPDATE
 40
2452536.652836909
  9
$TDINDWG
 40
0.0090996875
  9
$TDUSRTIMER
 40
0.0090996875
  9
$USRTIMER
 70
     1
  9
$ANGBASE
 50
0.0
  9
$ANGDIR
 70
     0
  9
$PDMODE
 70
     0
  9
$PDSIZE
 40
0.0
  9
$PLINEWID
 40
0.0
  9
$SPLFRAME
 70
     0
  9
$SPLINETYPE
 70
     6
  9
$SPLINESEGS
 70
     8
  9
$HANDSEED
  5
69
  9
$SURFTAB1
 70
     6
  9
$SURFTAB2
 70
     6
  9
$SURFTYPE
 70
     6
  9
$SURFU
 70
     6
  9
$SURFV
 70
     6
  9
$UCSBASE
  2

  9
$UCSNAME
  2

  9
$UCSORG
 10
0.0
 20
0.0
 30
0.0
  9
$UCSXDIR
 10
1.0
 20
0.0
 30
0.0
  9
$UCSYDIR
 10
0.0
 20
1.0
 30
0.0
  9
$UCSORTHOREF
  2

  9
$UCSORTHOVIEW
 70
     0
  9
$UCSORGTOP
 10
0.0
 20
0.0
 30
0.0
  9
$UCSORGBOTTOM
 10
0.0
 20
0.0
 30
0.0
  9
$UCSORGLEFT
 10
0.0
 20
0.0
 30
0.0
  9
$UCSORGRIGHT
 10
0.0
 20
0.0
 30
0.0
  9
$UCSORGFRONT
 10
0.0
 20
0.0
 30
0.0
  9
$UCSORGBACK
 10
0.0
 20
0.0
 30
0.0
  9
$PUCSBASE
  2

  9
$PUCSNAME
  2

  9
$PUCSORG
 10
0.0
 20
0.0
 30
0.0
  9
$PUCSXDIR
 10
1.0
 20
0.0
 30
0.0
  9
$PUCSYDIR
 10
0.0
 20
1.0
 30
0.0
  9
$PUCSORTHOREF
  2

  9
$PUCSORTHOVIEW
 70
     0
  9
$PUCSORGTOP
 10
0.0
 20
0.0
 30
0.0
  9
$PUCSORGBOTTOM
 10
0.0
 20
0.0
 30
0.0
  9
$PUCSORGLEFT
 10
0.0
 20
0.0
 30
0.0
  9
$PUCSORGRIGHT
 10
0.0
 20
0.0
 30
0.0
  9
$PUCSORGFRONT
 10
0.0
 20
0.0
 30
0.0
  9
$PUCSORGBACK
 10
0.0
 20
0.0
 30
0.0
  9
$USERI1
 70
     0
  9
$USERI2
 70
     0
  9
$USERI3
 70
     0
  9
$USERI4
 70
     0
  9
$USERI5
 70
     0
  9
$USERR1
 40
0.0
  9
$USERR2
 40
0.0
  9
$USERR3
 40
0.0
  9
$USERR4
 40
0.0
  9
$USERR5
 40
0.0
  9
$WORLDVIEW
 70
     1
  9
$SHADEDGE
 70
     3
  9
$SHADEDIF
 70
    70
  9
$TILEMODE
 70
     1
  9
$MAXACTVP
 70
    16
  9
$PINSBASE
 10
0.0
 20
0.0
 30
0.0
  9
$PLIMCHECK
 70
     0
  9
$PEXTMIN
 10
1.000000000000000E+20
 20
1.000000000000000E+20
 30
1.000000000000000E+20
  9
$PEXTMAX
 10
-1.000000000000000E+20
 20
-1.000000000000000E+20
 30
-1.000000000000000E+20
  9
$PLIMMIN
 10
0.0
 20
0.0
  9
$PLIMMAX
 10
12.0
 20
9.0
  9
$UNITMODE
 70
     0
  9
$VISRETAIN
 70
     0
  9
$PLINEGEN
 70
     0
  9
$PSLTSCALE
 70
     1
  9
$TREEDEPTH
 70
  3020
  9
$CMLSTYLE
  2
Standard
  9
$CMLJUST
 70
     0
  9
$CMLSCALE
 40
1.0
  9
$PROXYGRAPHICS
 70
     1
  9
$MEASUREMENT
 70
     0
  9
$CELWEIGHT
370
    -1
  9
$ENDCAPS
280
     0
  9
$JOINSTYLE
280
     0
  9
$LWDISPLAY
290
     0
  9
$INSUNITS
 70
     0
  9
$HYPERLINKBASE
  1

  9
$STYLESHEET
  1
Blanc i negre.ctb
  9
$XEDIT
290
     1
  9
$CEPSNTYPE
380
     0
  9
$PSTYLEMODE
290
     1
  9
$FINGERPRINTGUID
  2
{F68B4DF4-5CB1-4A71-AD07-499D493B714D}
  9
$VERSIONGUID
  2
{7D447C76-6B56-48F2-AB6D-DDCCA0A3884D}
  9
$EXTNAMES
290
     1
  9
$PSVPSCALE
 40
0.0
  9
$OLESTARTUP
290
     0
  0
ENDSEC
  0
SECTION
  2
CLASSES
  0
CLASS
  1
ACDBDICTIONARYWDFLT
  2
AcDbDictionaryWithDefault
  3
AutoCAD 2000
 90
        0
280
     0
281
     0
  0
CLASS
  1
ACDBPLACEHOLDER
  2
AcDbPlaceHolder
  3
AutoCAD 2000
 90
        0
280
     0
281
     0
  0
CLASS
  1
LAYOUT
  2
AcDbLayout
  3
AutoCAD 2000
 90
        0
280
     0
281
     0
  0
ENDSEC
  0
SECTION
  2
TABLES
  0
TABLE
  2
VPORT
  5
8
330
0
100
AcDbSymbolTable
 70
     2
  0
VPORT
  5
68
330
8
100
AcDbSymbolTableRecord
100
AcDbViewportTableRecord
  2
*Active
 70
     0
 10
0.0
 20
0.0
 11
1.0
 21
1.0
 12
286.6460000291038
 22
37.32202864771525
 13
0.0
 23
0.0
 14
1.0
 24
1.0
 15
0.0
 25
0.0
 16
0.0
 26
0.0
 36
1.0
 17
0.0
 27
0.0
 37
0.0
 40
14.96642410523645
 41
1.421313506815365
 42
50.0
 43
0.0
 44
0.0
 50
0.0
 51
0.0
 71
     0
 72
   100
 73
     1
 74
     1
 75
     0
 76
     0
 77
     0
 78
     0
281
     0
 65
     1
110
0.0
120
0.0
130
0.0
111
1.0
121
0.0
131
0.0
112
0.0
122
1.0
132
0.0
 79
     0
146
0.0
  0
ENDTAB
  0
TABLE
  2
LTYPE
  5
5
330
0
100
AcDbSymbolTable
 70
     1
  0
LTYPE
  5
13
330
5
100
AcDbSymbolTableRecord
100
AcDbLinetypeTableRecord
  2
ByBlock
 70
     0
  3

 72
    65
 73
     0
 40
0.0
  0
LTYPE
  5
14
330
5
100
AcDbSymbolTableRecord
100
AcDbLinetypeTableRecord
  2
ByLayer
 70
     0
  3

 72
    65
 73
     0
 40
0.0
  0
LTYPE
  5
15
330
5
100
AcDbSymbolTableRecord
100
AcDbLinetypeTableRecord
  2
CONTINUOUS
 70
     0
  3
Solid line
 72
    65
 73
     0
 40
0.0
  0
ENDTAB
  0
TABLE
  2
LAYER
  5
2
330
0
100
AcDbSymbolTable
 70
     8
  0
LAYER
  5
10
330
2
100
AcDbSymbolTableRecord
100
AcDbLayerTableRecord
  2
0
 70
     0
 62
     7
  6
CONTINUOUS
370
    -3
390
F
  0
LAYER
  5
22
330
2
100
AcDbSymbolTableRecord
100
AcDbLayerTableRecord
  2
1
 70
     0
 62
     7
  6
CONTINUOUS
370
    -3
390
F
  0
LAYER
  5
23
330
2
100
AcDbSymbolTableRecord
100
AcDbLayerTableRecord
  2
7
 70
     0
 62
     7
  6
CONTINUOUS
370
    -3
390
F
  0
LAYER
  5
24
330
2
100
AcDbSymbolTableRecord
100
AcDbLayerTableRecord
  2
8
 70
     0
 62
     7
  6
CONTINUOUS
370
    -3
390
F
  0
LAYER
  5
25
330
2
100
AcDbSymbolTableRecord
100
AcDbLayerTableRecord
  2
9
 70
     0
 62
     7
  6
CONTINUOUS
370
    -3
390
F
  0
LAYER
  5
26
330
2
100
AcDbSymbolTableRecord
100
AcDbLayerTableRecord
  2
22
 70
     0
 62
     7
  6
CONTINUOUS
370
    -3
390
F
  0
LAYER
  5
27
330
2
100
AcDbSymbolTableRecord
100
AcDbLayerTableRecord
  2
25
 70
     0
 62
     7
  6
CONTINUOUS
370
    -3
390
F
  0
LAYER
  5
67
330
2
100
AcDbSymbolTableRecord
100
AcDbLayerTableRecord
  2
NO PRINT
 70
     0
 62
     7
  6
CONTINUOUS
290
     0
370
    -3
390
F
  0
ENDTAB
  0
TABLE
  2
STYLE
  5
3
330
0
100
AcDbSymbolTable
 70
     2
  0
STYLE
  5
11
330
3
100
AcDbSymbolTableRecord
100
AcDbTextStyleTableRecord
  2
Standard
 70
     0
 40
0.0
 41
1.0
 50
0.0
 71
     0
 42
0.2
  3
txt
  4

  0
STYLE
  5
28
330
3
100
AcDbSymbolTableRecord
100
AcDbTextStyleTableRecord
  2
ROMANC
 70
     0
 40
0.0
 41
1.0
 50
0.0
 71
     0
 42
0.2
  3
ROMANC
  4

  0
ENDTAB
  0
TABLE
  2
VIEW
  5
6
330
0
100
AcDbSymbolTable
 70
     0
  0
ENDTAB
  0
TABLE
  2
UCS
  5
7
330
0
100
AcDbSymbolTable
 70
     0
  0
ENDTAB
  0
TABLE
  2
APPID
  5
9
330
0
100
AcDbSymbolTable
 70
     1
  0
APPID
  5
12
330
9
100
AcDbSymbolTableRecord
100
AcDbRegAppTableRecord
  2
ACAD
 70
     0
  0
ENDTAB
  0
TABLE
  2
DIMSTYLE
  5
A
330
0
100
AcDbSymbolTable
 70
     1
100
AcDbDimStyleTable
 71
     0
  0
DIMSTYLE
105
65
330
A
100
AcDbSymbolTableRecord
100
AcDbDimStyleTableRecord
  2
Standard
 70
     0
340
11
  0
ENDTAB
  0
TABLE
  2
BLOCK_RECORD
  5
1
330
0
100
AcDbSymbolTable
 70
     0
  0
BLOCK_RECORD
  5
1E
330
1
100
AcDbSymbolTableRecord
100
AcDbBlockTableRecord
  2
*Model_Space
340
21
  0
BLOCK_RECORD
  5
1A
330
1
100
AcDbSymbolTableRecord
100
AcDbBlockTableRecord
  2
*Paper_Space
340
1D
  0
ENDTAB
  0
ENDSEC
  0
SECTION
  2
BLOCKS
  0
BLOCK
  5
1F
330
1E
100
AcDbEntity
  8
0
100
AcDbBlockBegin
  2
*Model_Space
 70
     0
 10
0.0
 20
0.0
 30
0.0
  3
*Model_Space
  1

  0
ENDBLK
  5
20
330
1E
100
AcDbEntity
  8
0
100
AcDbBlockEnd
  0
BLOCK
  5
1B
330
1A
100
AcDbEntity
 67
     1
  8
0
100
AcDbBlockBegin
  2
*Paper_Space
 70
     0
 10
0.0
 20
0.0
 30
0.0
  3
*Paper_Space
  1

  0
ENDBLK
  5
1C
330
1A
100
AcDbEntity
 67
     1
  8
0
100
AcDbBlockEnd
  0
ENDSEC
  0
SECTION
  2
ENTITIES
  0
TEXT
  5
2C
330
1E
100
AcDbEntity
  8
0
  6
Continuous
100
AcDbText
 10
286.9089999999999
 20
41.32399999999999
 30
0.0
 40
0.1
  1
2
  7
ROMANC
100
AcDbText
  0
TEXT
  5
2D
330
1E
100
AcDbEntity
  8
0
  6
Continuous
100
AcDbText
 10
283.9259999999999
 20
41.768
 30
0.0
 40
0.3
  1
ESCALA  1:50
  7
ROMANC
100
AcDbText
  0
LWPOLYLINE
  5
2E
330
1E
100
AcDbEntity
  8
NO PRINT
  6
Continuous
100
AcDbPolyline
 90
        4
 70
     1
 43
0.0
 10
281.396
 20
44.747
 10
291.896
 20
44.747
 10
291.896
 20
29.897
 10
281.396
 20
29.897
  0
TEXT
  5
34
330
1E
100
AcDbEntity
  8
0
  6
Continuous
100
AcDbText
 10
283.9259999999999
 20
42.381
 30
0.0
 40
0.3
  1
TIPUS   T431
  7
ROMANC
100
AcDbText
  0
LINE
  5
35
330
1E
100
AcDbEntity
  8
1
  6
Continuous
100
AcDbLine
 10
284.4856447205493
 20
36.3054279898823
 30
0.0
 11
284.4856447205493
 21
36.8054279898823
 31
0.0
  0
TEXT
  5
36
330
1E
100
AcDbEntity
  8
0
  6
Continuous
100
AcDbText
 10
283.922
 20
40.529
 30
0.0
 40
0.3
  1
P = 76 dm
  7
ROMANC
100
AcDbText
  0
TEXT
  5
37
330
1E
100
AcDbEntity
  8
0
  6
Continuous
100
AcDbText
 10
283.9449999999999
 20
41.09899999999999
 30
0.0
 40
0.3
  1
S = 431 dm
  7
ROMANC
100
AcDbText
  0
ARC
  5
38
330
1E
100
AcDbEntity
  8
1
  6
Continuous
100
AcDbCircle
 10
285.7556447205493
 20
38.8435949898823
 30
0.0
 40
2.838166999999999
100
AcDbArc
 50
243.418397
 51
296.5816029999999
  0
TEXT
  5
39
330
1E
100
AcDbEntity
  8
1
  6
Continuous
100
AcDbText
 10
285.6336447205494
 20
35.8084279898823
 30
0.0
 40
0.075
  1
2.54
  7
ROMANC
100
AcDbText
  0
LINE
  5
3A
330
1E
100
AcDbEntity
  8
1
  6
Continuous
100
AcDbLine
 10
285.5956447205493
 20
35.8454279898823
 30
0.0
 11
284.4856447205493
 21
35.8454279898823
 31
0.0
  0
LINE
  5
3B
330
1E
100
AcDbEntity
  8
1
  6
Continuous
100
AcDbLine
 10
285.9146447205493
 20
35.8454279898823
 30
0.0
 11
287.0256447205493
 21
35.8454279898823
 31
0.0
  0
LINE
  5
3C
330
1E
100
AcDbEntity
  8
1
  6
Continuous
100
AcDbLine
 10
284.4486447205493
 20
35.8264279898823
 30
0.0
 11
284.5226447205494
 21
35.8644279898823
 31
0.0
  0
LINE
  5
3D
330
1E
100
AcDbEntity
  8
1
  6
Continuous
100
AcDbLine
 10
287.0626447205493
 20
35.8644279898823
 30
0.0
 11
286.9886447205493
 21
35.8264279898823
 31
0.0
  0
LINE
  5
3E
330
1E
100
AcDbEntity
  8
1
  6
Continuous
100
AcDbLine
 10
284.4856447205493
 20
36.2674279898823
 30
0.0
 11
284.4856447205493
 21
35.8074279898823
 31
0.0
  0
LINE
  5
3F
330
1E
100
AcDbEntity
  8
1
  6
Continuous
100
AcDbLine
 10
287.0256447205493
 20
36.2674279898823
 30
0.0
 11
287.0256447205493
 21
35.8074279898823
 31
0.0
  0
LINE
  5
40
330
1E
100
AcDbEntity
  8
1
  6
Continuous
100
AcDbLine
 10
287.0256447205493
 20
36.8054279898823
 30
0.0
 11
287.0256447205493
 21
36.3054279898823
 31
0.0
  0
ARC
  5
41
330
1E
100
AcDbEntity
  8
1
  6
Continuous
100
AcDbCircle
 10
285.7556447205493
 20
36.8054279898823
 30
0.0
 40
1.27
100
AcDbArc
 50
0.0
 51
180.0
  0
TEXT
  5
42
330
1E
100
AcDbEntity
  8
1
  6
Continuous
100
AcDbText
 10
287.6086447205493
 20
36.9214279898823
 30
0.0
 40
0.075
  1
2.07
 50
90.0
  7
ROMANC
100
AcDbText
  0
LINE
  5
43
330
1E
100
AcDbEntity
  8
1
  6
Continuous
100
AcDbLine
 10
287.5716447205494
 20
36.8834279898823
 30
0.0
 11
287.5716447205494
 21
36.0054279898823
 31
0.0
  0
LINE
  5
44
330
1E
100
AcDbEntity
  8
1
  6
Continuous
100
AcDbLine
 10
287.5716447205494
 20
37.1954279898823
 30
0.0
 11
287.5716447205494
 21
38.0754279898823
 31
0.0
  0
LINE
  5
45
330
1E
100
AcDbEntity
  8
1
  6
Continuous
100
AcDbLine
 10
287.5906447205494
 20
35.9684279898823
 30
0.0
 11
287.5526447205493
 21
36.0424279898823
 31
0.0
  0
LINE
  5
46
330
1E
100
AcDbEntity
  8
1
  6
Continuous
100
AcDbLine
 10
287.5526447205493
 20
38.1124279898823
 30
0.0
 11
287.5906447205494
 21
38.0384279898823
 31
0.0
  0
LINE
  5
47
330
1E
100
AcDbEntity
  8
1
  6
Continuous
100
AcDbLine
 10
285.7936447205493
 20
36.0054279898823
 30
0.0
 11
287.6096447205494
 21
36.0054279898823
 31
0.0
  0
LINE
  5
48
330
1E
100
AcDbEntity
  8
1
  6
Continuous
100
AcDbLine
 10
285.7936447205493
 20
38.0754279898823
 30
0.0
 11
287.6096447205494
 21
38.0754279898823
 31
0.0
  0
TEXT
  5
49
330
1E
100
AcDbEntity
  8
1
  6
Continuous
100
AcDbText
 10
287.2426447205493
 20
36.4384279898823
 30
0.0
 40
0.075
  1
0.30
 50
90.0
  7
ROMANC
100
AcDbText
  0
LINE
  5
4A
330
1E
100
AcDbEntity
  8
1
  6
Continuous
100
AcDbLine
 10
287.2046447205493
 20
35.8554279898823
 30
0.0
 11
287.2046447205493
 21
36.0054279898823
 31
0.0
  0
LINE
  5
4B
330
1E
100
AcDbEntity
  8
1
  6
Continuous
100
AcDbLine
 10
287.2046447205493
 20
36.4004279898823
 30
0.0
 11
287.2046447205493
 21
36.3054279898823
 31
0.0
  0
LINE
  5
4C
330
1E
100
AcDbEntity
  8
1
  6
Continuous
100
AcDbLine
 10
287.1856447205493
 20
36.0424279898823
 30
0.0
 11
287.2236447205493
 21
35.9684279898823
 31
0.0
  0
LINE
  5
4D
330
1E
100
AcDbEntity
  8
1
  6
Continuous
100
AcDbLine
 10
287.2236447205493
 20
36.2684279898823
 30
0.0
 11
287.1856447205493
 21
36.3424279898823
 31
0.0
  0
LINE
  5
4E
330
1E
100
AcDbEntity
  8
1
  6
Continuous
100
AcDbLine
 10
285.7936447205493
 20
36.0054279898823
 30
0.0
 11
287.2426447205493
 21
36.0054279898823
 31
0.0
  0
LINE
  5
4F
330
1E
100
AcDbEntity
  8
1
  6
Continuous
100
AcDbLine
 10
287.0636447205494
 20
36.3054279898823
 30
0.0
 11
287.2426447205493
 21
36.3054279898823
 31
0.0
  0
TEXT
  5
50
330
1E
100
AcDbEntity
  8
1
  6
Continuous
100
AcDbText
 10
287.4226447205493
 20
36.4364279898823
 30
0.0
 40
0.075
  1
0.50
 50
90.0
  7
ROMANC
100
AcDbText
  0
LINE
  5
51
330
1E
100
AcDbEntity
  8
1
  6
Continuous
100
AcDbLine
 10
287.3846447205493
 20
36.1554279898823
 30
0.0
 11
287.3846447205493
 21
36.3054279898823
 31
0.0
  0
LINE
  5
52
330
1E
100
AcDbEntity
  8
1
  6
Continuous
100
AcDbLine
 10
287.3846447205493
 20
36.9554279898823
 30
0.0
 11
287.3846447205493
 21
36.8054279898823
 31
0.0
  0
LINE
  5
53
330
1E
100
AcDbEntity
  8
1
  6
Continuous
100
AcDbLine
 10
287.3656447205494
 20
36.3424279898823
 30
0.0
 11
287.4036447205493
 21
36.2684279898823
 31
0.0
  0
LINE
  5
54
330
1E
100
AcDbEntity
  8
1
  6
Continuous
100
AcDbLine
 10
287.4036447205493
 20
36.7684279898823
 30
0.0
 11
287.3656447205494
 21
36.8424279898823
 31
0.0
  0
LINE
  5
55
330
1E
100
AcDbEntity
  8
1
  6
Continuous
100
AcDbLine
 10
287.0636447205494
 20
36.3054279898823
 30
0.0
 11
287.4226447205493
 21
36.3054279898823
 31
0.0
  0
LINE
  5
56
330
1E
100
AcDbEntity
  8
1
  6
Continuous
100
AcDbLine
 10
287.0636447205494
 20
36.8054279898823
 30
0.0
 11
287.4226447205493
 21
36.8054279898823
 31
0.0
  0
TEXT
  5
57
330
1E
100
AcDbEntity
  8
1
  6
Continuous
100
AcDbText
 10
287.4226447205493
 20
37.3304279898823
 30
0.0
 40
0.075
  1
1.27
 50
90.0
  7
ROMANC
100
AcDbText
  0
LINE
  5
58
330
1E
100
AcDbEntity
  8
1
  6
Continuous
100
AcDbLine
 10
287.3846447205493
 20
37.2924279898823
 30
0.0
 11
287.3846447205493
 21
36.8054279898823
 31
0.0
  0
LINE
  5
59
330
1E
100
AcDbEntity
  8
1
  6
Continuous
100
AcDbLine
 10
287.3846447205493
 20
37.5874279898823
 30
0.0
 11
287.3846447205493
 21
38.0754279898823
 31
0.0
  0
LINE
  5
5A
330
1E
100
AcDbEntity
  8
1
  6
Continuous
100
AcDbLine
 10
287.4036447205493
 20
36.7684279898823
 30
0.0
 11
287.3656447205494
 21
36.8424279898823
 31
0.0
  0
LINE
  5
5B
330
1E
100
AcDbEntity
  8
1
  6
Continuous
100
AcDbLine
 10
287.3656447205494
 20
38.1124279898823
 30
0.0
 11
287.4036447205493
 21
38.0384279898823
 31
0.0
  0
LINE
  5
5C
330
1E
100
AcDbEntity
  8
1
  6
Continuous
100
AcDbLine
 10
285.7936447205493
 20
38.0754279898823
 30
0.0
 11
287.4226447205493
 21
38.0754279898823
 31
0.0
  0
ARC
  5
5D
330
1E
100
AcDbEntity
  8
1
  6
Continuous
100
AcDbCircle
 10
285.7556447205493
 20
36.8054279898823
 30
0.0
 40
1.28
100
AcDbArc
 50
0.0
 51
180.0
  0
ARC
  5
5E
330
1E
100
AcDbEntity
  8
1
  6
Continuous
100
AcDbCircle
 10
285.7556447205493
 20
36.8054279898823
 30
0.0
 40
1.29
100
AcDbArc
 50
0.0
 51
180.0
  0
LINE
  5
5F
330
1E
100
AcDbEntity
  8
1
  6
Continuous
100
AcDbLine
 10
287.0356447205494
 20
36.8054279898823
 30
0.0
 11
287.0356447205494
 21
36.2994279898823
 31
0.0
  0
LINE
  5
60
330
1E
100
AcDbEntity
  8
1
  6
Continuous
100
AcDbLine
 10
287.0456447205493
 20
36.8054279898823
 30
0.0
 11
287.0456447205493
 21
36.2934279898823
 31
0.0
  0
ARC
  5
61
330
1E
100
AcDbEntity
  8
1
  6
Continuous
100
AcDbCircle
 10
285.7556447205493
 20
38.8435949898823
 30
0.0
 40
2.848166999999999
100
AcDbArc
 50
243.2940419999999
 51
296.705958
  0
ARC
  5
62
330
1E
100
AcDbEntity
  8
1
  6
Continuous
100
AcDbCircle
 10
285.7556447205493
 20
38.8435949898823
 30
0.0
 40
2.858166999999999
100
AcDbArc
 50
243.170422
 51
296.8295779999999
  0
LINE
  5
63
330
1E
100
AcDbEntity
  8
1
  6
Continuous
100
AcDbLine
 10
284.4756447205493
 20
36.2994279898823
 30
0.0
 11
284.4756447205493
 21
36.8054279898823
 31
0.0
  0
LINE
  5
64
330
1E
100
AcDbEntity
  8
1
  6
Continuous
100
AcDbLine
 10
284.4656447205494
 20
36.2934279898823
 30
0.0
 11
284.4656447205494
 21
36.8054279898823
 31
0.0
  0
ENDSEC
  0
SECTION
  2
OBJECTS
  0
DICTIONARY
  5
C
330
0
100
AcDbDictionary
281
     1
  3
ACAD_GROUP
350
D
  3
ACAD_PLOTSTYLENAME
350
E
  3
ACAD_MLINESTYLE
350
16
  3
ACAD_PLOTSETTINGS
350
18
  3
ACAD_LAYOUT
350
19
  0
DICTIONARY
  5
D
102
{ACAD_REACTORS
330
C
102
}
330
C
100
AcDbDictionary
281
     1
  0
ACDBDICTIONARYWDFLT
  5
E
102
{ACAD_REACTORS
330
C
102
}
330
C
100
AcDbDictionary
281
     1
  3
Normal
350
F
100
AcDbDictionaryWithDefault
340
F
  0
DICTIONARY
  5
16
102
{ACAD_REACTORS
330
C
102
}
330
C
100
AcDbDictionary
281
     1
  3
Standard
350
17
  0
DICTIONARY
  5
18
102
{ACAD_REACTORS
330
C
102
}
330
C
100
AcDbDictionary
281
     1
  0
DICTIONARY
  5
19
102
{ACAD_REACTORS
330
C
102
}
330
C
100
AcDbDictionary
281
     1
  3
Presentación1
350
1D
  3
Model
350
21
  0
ACDBPLACEHOLDER
  5
F
102
{ACAD_REACTORS
330
E
102
}
330
E
  0
MLINESTYLE
  5
17
102
{ACAD_REACTORS
330
16
102
}
330
16
100
AcDbMlineStyle
  2
STANDARD
 70
     0
  3

 62
   256
 51
90.0
 52
90.0
 71
     2
 49
0.5
 62
   256
  6
BYLAYER
 49
-0.5
 62
   256
  6
BYLAYER
  0
LAYOUT
  5
1D
102
{ACAD_REACTORS
330
19
102
}
330
19
100
AcDbPlotSettings
  1

  2
\\SERVIDOR1W\LS8100PS
  4

  6

 40
0.0
 41
0.0
 42
0.0
 43
0.0
 44
0.0
 45
0.0
 46
0.0
 47
0.0
 48
0.0
 49
0.0
140
0.0
141
0.0
142
1.0
143
1.0
 70
   688
 72
     0
 73
     0
 74
     5
  7
Blanc i negre.ctb
 75
    16
147
1.0
148
0.0
149
0.0
100
AcDbLayout
  1
Presentación1
 70
     1
 71
     1
 10
0.0
 20
0.0
 11
12.0
 21
9.0
 12
0.0
 22
0.0
 32
0.0
 14
1.000000000000000E+20
 24
1.000000000000000E+20
 34
1.000000000000000E+20
 15
-1.000000000000000E+20
 25
-1.000000000000000E+20
 35
-1.000000000000000E+20
146
0.0
 13
0.0
 23
0.0
 33
0.0
 16
1.0
 26
0.0
 36
0.0
 17
0.0
 27
1.0
 37
0.0
 76
     0
330
1A
  0
LAYOUT
  5
21
102
{ACAD_REACTORS
330
19
102
}
330
19
100
AcDbPlotSettings
  1

  2
\\SERVIDOR1W\LS8100PS
  4
A4
  6

 40
5.365749835968017
 41
5.408084392547607
 42
5.365737915039062
 43
5.365753173828125
 44
209.8886566162109
 45
297.0530090332031
 46
0.0
 47
0.0
 48
0.0
 49
0.0
140
0.0
141
0.0
142
1.0
143
1.0
 70
 11952
 72
     0
 73
     1
 74
     0
  7

 75
     0
147
1.0
148
-7090.801297624458
149
-757.9724245371878
100
AcDbLayout
  1
Model
 70
     1
 71
     0
 10
0.0
 20
0.0
 11
12.0
 21
9.0
 12
0.0
 22
0.0
 32
0.0
 14
0.0
 24
0.0
 34
0.0
 15
0.0
 25
0.0
 35
0.0
146
0.0
 13
0.0
 23
0.0
 33
0.0
 16
1.0
 26
0.0
 36
0.0
 17
0.0
 27
1.0
 37
0.0
 76
     0
330
1E
  0
ENDSEC
  0
EOF
