  0
SECTION
  2
HEADER
  9
$ACADVER
  1
AC1009
  9
$INSBASE
 10
0.0
 20
0.0
 30
0.0
  9
$EXTMIN
 10
281.396000
 20
29.897000
 30
-2147483.648000
  9
$EXTMAX
 10
283.496000
 20
32.867000
 30
0.000000
  9
$LIMMIN
 10
280.396000
 20
28.897000
  9
$LIMMAX
 10
284.496000
 20
31.867000
  9
$ORTHOMODE
 70
     0
  9
$REGENMODE
 70
     1
  9
$FILLMODE
 70
     1
  9
$QTEXTMODE
 70
     0
  9
$MIRRTEXT
 70
     1
  9
$DRAGMODE
 70
     2
  9
$LTSCALE
 40
1.0
  9
$OSMODE
 70
     0
  9
$ATTMODE
 70
     1
  9
$TEXTSIZE
 40
0.2
  9
$TRACEWID
 40
0.05
  9
$TEXTSTYLE
  7
STANDARD
  9
$CLAYER
  8
0
  9
$CELTYPE
  6
BYLAYER
  9
$CECOLOR
 62
   256
  9
$DIMSCALE
 40
1.0
  9
$DIMASZ
 40
0.18
  9
$DIMEXO
 40
0.0625
  9
$DIMDLI
 40
0.38
  9
$DIMRND
 40
0.0
  9
$DIMDLE
 40
0.0
  9
$DIMEXE
 40
0.18
  9
$DIMTP
 40
0.0
  9
$DIMTM
 40
0.0
  9
$DIMTXT
 40
0.18
  9
$DIMCEN
 40
0.09
  9
$DIMTSZ
 40
0.0
  9
$DIMTOL
 70
     0
  9
$DIMLIM
 70
     0
  9
$DIMTIH
 70
     1
  9
$DIMTOH
 70
     1
  9
$DIMSE1
 70
     0
  9
$DIMSE2
 70
     0
  9
$DIMTAD
 70
     0
  9
$DIMZIN
 70
     0
  9
$DIMBLK
  1

  9
$DIMASO
 70
     1
  9
$DIMSHO
 70
     1
  9
$DIMPOST
  1

  9
$DIMAPOST
  1

  9
$DIMALT
 70
     0
  9
$DIMALTD
 70
     2
  9
$DIMALTF
 40
25.4
  9
$DIMLFAC
 40
1.0
  9
$DIMTOFL
 70
     0
  9
$DIMTVP
 40
0.0
  9
$DIMTIX
 70
     0
  9
$DIMSOXD
 70
     0
  9
$DIMSAH
 70
     0
  9
$DIMBLK1
  1

  9
$DIMBLK2
  1

  9
$DIMSTYLE
  2
*UNNAMED
  9
$DIMCLRD
 70
     0
  9
$DIMCLRE
 70
     0
  9
$DIMCLRT
 70
     0
  9
$DIMTFAC
 40
1.0
  9
$DIMGAP
 40
0.09
  9
$LUNITS
 70
     2
  9
$LUPREC
 70
     4
  9
$AXISMODE
 70
     0
  9
$AXISUNIT
 10
0.0
 20
0.0
  9
$SKETCHINC
 40
0.1
  9
$FILLETRAD
 40
0.0
  9
$AUNITS
 70
     0
  9
$AUPREC
 70
     0
  9
$MENU
  1
acad
  9
$ELEVATION
 40
0.0
  9
$PELEVATION
 40
0.0
  9
$THICKNESS
 40
0.0
  9
$LIMCHECK
 70
     0
  9
$BLIPMODE
 70
     1
  9
$CHAMFERA
 40
0.0
  9
$CHAMFERB
 40
0.0
  9
$SKPOLY
 70
     0
  9
$TDCREATE
 40
2448315.373408102
  9
$TDUPDATE
 40
2448315.373408102
  9
$TDINDWG
 40
0.0000000000
  9
$TDUSRTIMER
 40
0.0000000000
  9
$USRTIMER
 70
     1
  9
$ANGBASE
 50
0.0
  9
$ANGDIR
 70
     0
  9
$PDMODE
 70
     0
  9
$PDSIZE
 40
0.0
  9
$PLINEWID
 40
0.0
  9
$COORDS
 70
     0
  9
$SPLFRAME
 70
     0
  9
$SPLINETYPE
 70
     6
  9
$SPLINESEGS
 70
     8
  9
$ATTDIA
 70
     0
  9
$ATTREQ
 70
     1
  9
$HANDLING
 70
     0
  9
$HANDSEED
  5
0
  9
$SURFTAB1
 70
     6
  9
$SURFTAB2
 70
     6
  9
$SURFTYPE
 70
     6
  9
$SURFU
 70
     6
  9
$SURFV
 70
     6
  9
$UCSNAME
  2

  9
$UCSORG
 10
0.0
 20
0.0
 30
0.0
  9
$UCSXDIR
 10
1.0
 20
0.0
 30
0.0
  9
$UCSYDIR
 10
0.0
 20
1.0
 30
0.0
  9
$PUCSNAME
  2

  9
$PUCSORG
 10
0.0
 20
0.0
 30
0.0
  9
$PUCSXDIR
 10
1.0
 20
0.0
 30
0.0
  9
$PUCSYDIR
 10
0.0
 20
1.0
 30
0.0
  9
$USERI1
 70
     0
  9
$USERI2
 70
     0
  9
$USERI3
 70
     0
  9
$USERI4
 70
     0
  9
$USERI5
 70
     0
  9
$USERR1
 40
0.0
  9
$USERR2
 40
0.0
  9
$USERR3
 40
0.0
  9
$USERR4
 40
0.0
  9
$USERR5
 40
0.0
  9
$WORLDVIEW
 70
     1
  9
$SHADEDGE
 70
     3
  9
$SHADEDIF
 70
    70
  9
$TILEMODE
 70
     1
  9
$MAXACTVP
 70
    16
  9
$PINSBASE
 10
0.0
 20
0.0
 30
0.0
  9
$PLIMCHECK
 70
     0
  9
$PEXTMIN
 10
1.000000E+20
 20
1.000000E+20
 30
1.000000E+20
  9
$PEXTMAX
 10
-1.000000E+20
 20
-1.000000E+20
 30
-1.000000E+20
  9
$PLIMMIN
 10
0.0
 20
0.0
  9
$PLIMMAX
 10
12.0
 20
9.0
  9
$UNITMODE
 70
     0
  9
$VISRETAIN
 70
     0
  0
ENDSEC
  0
SECTION
  2
TABLES
  0
TABLE
  2
LTYPE
 70
    1
  0
LTYPE
  2
CONTINUOUS
 70
    64
3
Solid line
 72
    65
 73
0
 40
0.000000
  0
ENDTAB
  0
TABLE
  2
LAYER
 70
    7
  0
LAYER
  2
0
 70
    64
 62
7
  6
CONTINUOUS
  0
LAYER
  2
1
 70
    64
 62
7
  6
CONTINUOUS
  0
LAYER
  2
7
 70
    64
 62
7
  6
CONTINUOUS
  0
LAYER
  2
8
 70
    64
 62
7
  6
CONTINUOUS
  0
LAYER
  2
9
 70
    64
 62
7
  6
CONTINUOUS
  0
LAYER
  2
22
 70
    64
 62
7
  6
CONTINUOUS
  0
LAYER
  2
0
 70
    64
 62
7
  6
CONTINUOUS
  0
ENDTAB
  0
TABLE
  2
STYLE
 70
    1
  0
STYLE
  2
ROMANC
70
     0
 40
0.0
 41
1.0
 50
0.0
 71
     0
 42
0.2
  3
ROMANC
  4

  0
ENDTAB
  0
ENDSEC
  0
SECTION
  2
BLOCKS
  0
ENDSEC
  0
SECTION
  2
ENTITIES
  0
POLYLINE
  8
0
  6
CONTINUOUS
 66
     1
 70
     1
  0
VERTEX
  8
0
  6
CONTINUOUS
 10
281.396000
 20
32.867000
  0
VERTEX
  8
0
  6
CONTINUOUS
 10
283.496000
 20
32.867000
  0
VERTEX
  8
0
  6
CONTINUOUS
 10
283.496000
 20
29.897000
  0
VERTEX
  8
0
  6
CONTINUOUS
 10
281.396000
 20
29.897000
  0
SEQEND
  8
0
  0
TEXT
  8
0
  6
CONTINUOUS
 40
0.060000
 10
282.015000
 20
32.425000
  1
ESCALA  1:10
  7
ROMANC
  0
TEXT
  8
0
  6
CONTINUOUS
 40
0.018000
 10
282.563000
 20
32.351000
  1
2
  7
ROMANC
  0
TEXT
  8
0
  6
CONTINUOUS
 40
0.060000
 10
282.004000
 20
32.539000
  1
TIPUS   T43
  7
ROMANC
  0
TEXT
  8
0
  6
CONTINUOUS
 40
0.060000
 10
282.023000
 20
32.297000
  1
S = 43 dm
  7
ROMANC
  0
TEXT
  8
0
  6
CONTINUOUS
 40
0.060000
 10
282.013000
 20
32.166000
  1
P = 25 dm
  7
ROMANC
  0
ARC
  8
0
  6
CONTINUOUS
 10
282.359000
 20
31.238000
 40
0.350000
 50
0.000000
 51
180.000000
  0
LINE
  8
0
  6
CONTINUOUS
 10
282.009000
 20
30.913000
 11
282.009000
 21
31.238000
  0
ARC
  8
0
  6
CONTINUOUS
 10
282.359000
 20
33.350500
 40
2.462500
 50
261.828767
 51
278.171233
  0
LINE
  8
0
  6
CONTINUOUS
 10
282.709000
 20
31.238000
 11
282.709000
 21
30.913000
  0
TEXT
  8
0
  6
CONTINUOUS
 40
0.019000
 10
282.329000
 20
30.790000
  1
0.70
  7
ROMANC
  0
LINE
  8
0
  6
CONTINUOUS
 10
282.319000
 20
30.800000
 11
282.009000
 21
30.800000
  0
LINE
  8
0
  6
CONTINUOUS
 10
282.399000
 20
30.800000
 11
282.709000
 21
30.800000
  0
LINE
  8
0
  6
CONTINUOUS
 10
282.000000
 20
30.795000
 11
282.018000
 21
30.805000
  0
LINE
  8
0
  6
CONTINUOUS
 10
282.718000
 20
30.805000
 11
282.700000
 21
30.795000
  0
LINE
  8
0
  6
CONTINUOUS
 10
282.009000
 20
30.903000
 11
282.009000
 21
30.790000
  0
LINE
  8
0
  6
CONTINUOUS
 10
282.709000
 20
30.903000
 11
282.709000
 21
30.790000
  0
TEXT
  8
0
  6
CONTINUOUS
 40
0.019000
 10
282.790000
 20
31.033000
  1
0.35
 50
90.000000
  7
ROMANC
  0
LINE
  8
0
  6
CONTINUOUS
 10
282.780000
 20
31.023000
 11
282.780000
 21
30.888000
  0
LINE
  8
0
  6
CONTINUOUS
 10
282.780000
 20
31.103000
 11
282.780000
 21
31.238000
  0
LINE
  8
0
  6
CONTINUOUS
 10
282.785000
 20
30.878000
 11
282.775000
 21
30.898000
  0
LINE
  8
0
  6
CONTINUOUS
 10
282.775000
 20
31.248000
 11
282.785000
 21
31.228000
  0
LINE
  8
0
  6
CONTINUOUS
 10
282.369000
 20
30.888000
 11
282.790000
 21
30.888000
  0
LINE
  8
0
  6
CONTINUOUS
 10
282.719000
 20
31.238000
 11
282.790000
 21
31.238000
  0
TEXT
  8
0
  6
CONTINUOUS
 40
0.019000
 10
282.790000
 20
31.383000
  1
0.35
 50
90.000000
  7
ROMANC
  0
LINE
  8
0
  6
CONTINUOUS
 10
282.780000
 20
31.373000
 11
282.780000
 21
31.238000
  0
LINE
  8
0
  6
CONTINUOUS
 10
282.780000
 20
31.453000
 11
282.780000
 21
31.588000
  0
LINE
  8
0
  6
CONTINUOUS
 10
282.785000
 20
31.228000
 11
282.775000
 21
31.248000
  0
LINE
  8
0
  6
CONTINUOUS
 10
282.775000
 20
31.598000
 11
282.785000
 21
31.578000
  0
LINE
  8
0
  6
CONTINUOUS
 10
282.369000
 20
31.588000
 11
282.790000
 21
31.588000
  0
TEXT
  8
0
  6
CONTINUOUS
 40
0.019000
 10
282.868000
 20
31.208000
  1
0.70
 50
90.000000
  7
ROMANC
  0
LINE
  8
0
  6
CONTINUOUS
 10
282.859000
 20
31.198000
 11
282.859000
 21
30.888000
  0
LINE
  8
0
  6
CONTINUOUS
 10
282.859000
 20
31.278000
 11
282.859000
 21
31.588000
  0
LINE
  8
0
  6
CONTINUOUS
 10
282.864000
 20
30.878000
 11
282.854000
 21
30.898000
  0
LINE
  8
0
  6
CONTINUOUS
 10
282.854000
 20
31.598000
 11
282.864000
 21
31.578000
  0
LINE
  8
0
  6
CONTINUOUS
 10
282.369000
 20
30.888000
 11
282.869000
 21
30.888000
  0
LINE
  8
0
  6
CONTINUOUS
 10
282.369000
 20
31.588000
 11
282.869000
 21
31.588000
  0
ARC
  8
0
  6
CONTINUOUS
 10
282.359000
 20
31.238000
 40
0.353000
 50
0.000000
 51
180.000000
  0
ARC
  8
0
  6
CONTINUOUS
 10
282.359000
 20
31.238000
 40
0.356000
 50
0.000000
 51
180.000000
  0
LINE
  8
0
  6
CONTINUOUS
 10
282.006000
 20
30.910000
 11
282.006000
 21
31.238000
  0
LINE
  8
0
  6
CONTINUOUS
 10
282.003000
 20
30.908000
 11
282.003000
 21
31.238000
  0
ARC
  8
0
  6
CONTINUOUS
 10
282.359000
 20
33.350500
 40
2.465500
 50
261.768342
 51
278.231658
  0
ARC
  8
0
  6
CONTINUOUS
 10
282.359000
 20
33.350500
 40
2.468500
 50
261.708053
 51
278.291947
  0
LINE
  8
0
  6
CONTINUOUS
 10
282.712000
 20
31.238000
 11
282.712000
 21
30.910000
  0
LINE
  8
0
  6
CONTINUOUS
 10
282.715000
 20
31.238000
 11
282.715000
 21
30.908000
  0
ENDSEC
  0
EOF
