  0
SECTION
  2
HEADER
  9
$ACADVER
  1
AC1009
  9
$INSBASE
 10
0.0
 20
0.0
 30
0.0
  9
$EXTMIN
 10
281.396000
 20
29.897000
 30
-2147483.648000
  9
$EXTMAX
 10
291.896000
 20
44.747000
 30
0.000000
  9
$LIMMIN
 10
280.396000
 20
28.897000
  9
$LIMMAX
 10
292.896000
 20
43.747000
  9
$ORTHOMODE
 70
     0
  9
$REGENMODE
 70
     1
  9
$FILLMODE
 70
     1
  9
$QTEXTMODE
 70
     0
  9
$MIRRTEXT
 70
     1
  9
$DRAGMODE
 70
     2
  9
$LTSCALE
 40
1.0
  9
$OSMODE
 70
     0
  9
$ATTMODE
 70
     1
  9
$TEXTSIZE
 40
0.2
  9
$TRACEWID
 40
0.05
  9
$TEXTSTYLE
  7
STANDARD
  9
$CLAYER
  8
0
  9
$CELTYPE
  6
BYLAYER
  9
$CECOLOR
 62
   256
  9
$DIMSCALE
 40
1.0
  9
$DIMASZ
 40
0.18
  9
$DIMEXO
 40
0.0625
  9
$DIMDLI
 40
0.38
  9
$DIMRND
 40
0.0
  9
$DIMDLE
 40
0.0
  9
$DIMEXE
 40
0.18
  9
$DIMTP
 40
0.0
  9
$DIMTM
 40
0.0
  9
$DIMTXT
 40
0.18
  9
$DIMCEN
 40
0.09
  9
$DIMTSZ
 40
0.0
  9
$DIMTOL
 70
     0
  9
$DIMLIM
 70
     0
  9
$DIMTIH
 70
     1
  9
$DIMTOH
 70
     1
  9
$DIMSE1
 70
     0
  9
$DIMSE2
 70
     0
  9
$DIMTAD
 70
     0
  9
$DIMZIN
 70
     0
  9
$DIMBLK
  1

  9
$DIMASO
 70
     1
  9
$DIMSHO
 70
     1
  9
$DIMPOST
  1

  9
$DIMAPOST
  1

  9
$DIMALT
 70
     0
  9
$DIMALTD
 70
     2
  9
$DIMALTF
 40
25.4
  9
$DIMLFAC
 40
1.0
  9
$DIMTOFL
 70
     0
  9
$DIMTVP
 40
0.0
  9
$DIMTIX
 70
     0
  9
$DIMSOXD
 70
     0
  9
$DIMSAH
 70
     0
  9
$DIMBLK1
  1

  9
$DIMBLK2
  1

  9
$DIMSTYLE
  2
*UNNAMED
  9
$DIMCLRD
 70
     0
  9
$DIMCLRE
 70
     0
  9
$DIMCLRT
 70
     0
  9
$DIMTFAC
 40
1.0
  9
$DIMGAP
 40
0.09
  9
$LUNITS
 70
     2
  9
$LUPREC
 70
     4
  9
$AXISMODE
 70
     0
  9
$AXISUNIT
 10
0.0
 20
0.0
  9
$SKETCHINC
 40
0.1
  9
$FILLETRAD
 40
0.0
  9
$AUNITS
 70
     0
  9
$AUPREC
 70
     0
  9
$MENU
  1
acad
  9
$ELEVATION
 40
0.0
  9
$PELEVATION
 40
0.0
  9
$THICKNESS
 40
0.0
  9
$LIMCHECK
 70
     0
  9
$BLIPMODE
 70
     1
  9
$CHAMFERA
 40
0.0
  9
$CHAMFERB
 40
0.0
  9
$SKPOLY
 70
     0
  9
$TDCREATE
 40
2448315.373408102
  9
$TDUPDATE
 40
2448315.373408102
  9
$TDINDWG
 40
0.0000000000
  9
$TDUSRTIMER
 40
0.0000000000
  9
$USRTIMER
 70
     1
  9
$ANGBASE
 50
0.0
  9
$ANGDIR
 70
     0
  9
$PDMODE
 70
     0
  9
$PDSIZE
 40
0.0
  9
$PLINEWID
 40
0.0
  9
$COORDS
 70
     0
  9
$SPLFRAME
 70
     0
  9
$SPLINETYPE
 70
     6
  9
$SPLINESEGS
 70
     8
  9
$ATTDIA
 70
     0
  9
$ATTREQ
 70
     1
  9
$HANDLING
 70
     0
  9
$HANDSEED
  5
0
  9
$SURFTAB1
 70
     6
  9
$SURFTAB2
 70
     6
  9
$SURFTYPE
 70
     6
  9
$SURFU
 70
     6
  9
$SURFV
 70
     6
  9
$UCSNAME
  2

  9
$UCSORG
 10
0.0
 20
0.0
 30
0.0
  9
$UCSXDIR
 10
1.0
 20
0.0
 30
0.0
  9
$UCSYDIR
 10
0.0
 20
1.0
 30
0.0
  9
$PUCSNAME
  2

  9
$PUCSORG
 10
0.0
 20
0.0
 30
0.0
  9
$PUCSXDIR
 10
1.0
 20
0.0
 30
0.0
  9
$PUCSYDIR
 10
0.0
 20
1.0
 30
0.0
  9
$USERI1
 70
     0
  9
$USERI2
 70
     0
  9
$USERI3
 70
     0
  9
$USERI4
 70
     0
  9
$USERI5
 70
     0
  9
$USERR1
 40
0.0
  9
$USERR2
 40
0.0
  9
$USERR3
 40
0.0
  9
$USERR4
 40
0.0
  9
$USERR5
 40
0.0
  9
$WORLDVIEW
 70
     1
  9
$SHADEDGE
 70
     3
  9
$SHADEDIF
 70
    70
  9
$TILEMODE
 70
     1
  9
$MAXACTVP
 70
    16
  9
$PINSBASE
 10
0.0
 20
0.0
 30
0.0
  9
$PLIMCHECK
 70
     0
  9
$PEXTMIN
 10
1.000000E+20
 20
1.000000E+20
 30
1.000000E+20
  9
$PEXTMAX
 10
-1.000000E+20
 20
-1.000000E+20
 30
-1.000000E+20
  9
$PLIMMIN
 10
0.0
 20
0.0
  9
$PLIMMAX
 10
12.0
 20
9.0
  9
$UNITMODE
 70
     0
  9
$VISRETAIN
 70
     0
  0
ENDSEC
  0
SECTION
  2
TABLES
  0
TABLE
  2
LTYPE
 70
    1
  0
LTYPE
  2
CONTINUOUS
 70
    64
3
Solid line
 72
    65
 73
0
 40
0.000000
  0
ENDTAB
  0
TABLE
  2
LAYER
 70
    8
  0
LAYER
  2
0
 70
    64
 62
7
  6
CONTINUOUS
  0
LAYER
  2
1
 70
    64
 62
7
  6
CONTINUOUS
  0
LAYER
  2
7
 70
    64
 62
7
  6
CONTINUOUS
  0
LAYER
  2
8
 70
    64
 62
7
  6
CONTINUOUS
  0
LAYER
  2
9
 70
    64
 62
7
  6
CONTINUOUS
  0
LAYER
  2
22
 70
    64
 62
7
  6
CONTINUOUS
  0
LAYER
  2
25
 70
    64
 62
7
  6
CONTINUOUS
  0
LAYER
  2
0
 70
    64
 62
7
  6
CONTINUOUS
  0
ENDTAB
  0
TABLE
  2
STYLE
 70
    1
  0
STYLE
  2
ROMANC
70
     0
 40
0.0
 41
1.0
 50
0.0
 71
     0
 42
0.2
  3
ROMANC
  4

  0
ENDTAB
  0
ENDSEC
  0
SECTION
  2
BLOCKS
  0
ENDSEC
  0
SECTION
  2
ENTITIES
  0
TEXT
  8
0
  6
CONTINUOUS
 40
0.100000
 10
286.909000
 20
41.324000
  1
2
  7
ROMANC
  0
TEXT
  8
0
  6
CONTINUOUS
 40
0.300000
 10
283.926000
 20
41.768000
  1
ESCALA  1:50
  7
ROMANC
  0
POLYLINE
  8
0
  6
CONTINUOUS
 66
     1
 70
     1
  0
VERTEX
  8
0
  6
CONTINUOUS
 10
281.396000
 20
44.747000
  0
VERTEX
  8
0
  6
CONTINUOUS
 10
291.896000
 20
44.747000
  0
VERTEX
  8
0
  6
CONTINUOUS
 10
291.896000
 20
29.897000
  0
VERTEX
  8
0
  6
CONTINUOUS
 10
281.396000
 20
29.897000
  0
SEQEND
  8
0
  0
TEXT
  8
0
  6
CONTINUOUS
 40
0.300000
 10
283.926000
 20
42.381000
  1
TIPUS   T424
  7
ROMANC
  0
ARC
  8
1
  6
CONTINUOUS
 10
286.375000
 20
34.714000
 40
0.900000
 50
360.000000
 51
540.000000
  0
POLYLINE
  8
1
  6
CONTINUOUS
 66
     1
 70
     0
  0
VERTEX
  8
1
  6
CONTINUOUS
 10
285.475000
 20
34.714000
 42
0.013988
  0
VERTEX
  8
1
  6
CONTINUOUS
 10
285.482570
 20
34.441796
 42
0.014591
  0
VERTEX
  8
1
  6
CONTINUOUS
 10
285.505667
 20
34.170480
 42
0.014992
  0
VERTEX
  8
1
  6
CONTINUOUS
 10
285.542513
 20
33.915777
 42
0.017060
  0
VERTEX
  8
1
  6
CONTINUOUS
 10
285.595577
 20
33.664000
 42
0.018032
  0
VERTEX
  8
1
  6
CONTINUOUS
 10
285.658293
 20
33.443586
 42
0.022540
  0
VERTEX
  8
1
  6
CONTINUOUS
 10
285.738604
 20
33.229076
 42
0.024565
  0
VERTEX
  8
1
  6
CONTINUOUS
 10
285.822144
 20
33.056659
 42
0.033825
  0
VERTEX
  8
1
  6
CONTINUOUS
 10
285.925000
 20
32.895347
 42
0.038083
  0
VERTEX
  8
1
  6
CONTINUOUS
 10
286.024027
 20
32.780156
 42
0.055183
  0
VERTEX
  8
1
  6
CONTINUOUS
 10
286.142063
 20
32.685556
 42
0.062682
  0
VERTEX
  8
1
  6
CONTINUOUS
 10
286.253899
 20
32.633630
 42
0.076588
  0
VERTEX
  8
1
  6
CONTINUOUS
 10
286.375000
 20
32.614000
 42
0.076588
  0
VERTEX
  8
1
  6
CONTINUOUS
 10
286.496101
 20
32.633630
 42
0.062682
  0
VERTEX
  8
1
  6
CONTINUOUS
 10
286.607937
 20
32.685556
 42
0.055183
  0
VERTEX
  8
1
  6
CONTINUOUS
 10
286.725973
 20
32.780156
 42
0.038083
  0
VERTEX
  8
1
  6
CONTINUOUS
 10
286.825000
 20
32.895347
 42
0.033825
  0
VERTEX
  8
1
  6
CONTINUOUS
 10
286.927856
 20
33.056659
 42
0.024565
  0
VERTEX
  8
1
  6
CONTINUOUS
 10
287.011396
 20
33.229076
 42
0.022540
  0
VERTEX
  8
1
  6
CONTINUOUS
 10
287.091707
 20
33.443586
 42
0.018032
  0
VERTEX
  8
1
  6
CONTINUOUS
 10
287.154423
 20
33.664000
 42
0.017060
  0
VERTEX
  8
1
  6
CONTINUOUS
 10
287.207487
 20
33.915777
 42
0.014992
  0
VERTEX
  8
1
  6
CONTINUOUS
 10
287.244333
 20
34.170480
 42
0.014591
  0
VERTEX
  8
1
  6
CONTINUOUS
 10
287.267430
 20
34.441796
 42
0.013988
  0
VERTEX
  8
1
  6
CONTINUOUS
 10
287.275000
 20
34.714000
  0
SEQEND
  8
0
  0
TEXT
  8
0
  6
CONTINUOUS
 40
0.300000
 10
283.922000
 20
40.529000
  1
P = 77 dm
  7
ROMANC
  0
TEXT
  8
0
  6
CONTINUOUS
 40
0.300000
 10
283.945000
 20
41.099000
  1
S = 424 dm
  7
ROMANC
  0
ARC
  8
1
  6
CONTINUOUS
 10
286.375000
 20
34.714000
 40
0.910000
 50
360.000000
 51
540.000000
  0
ARC
  8
1
  6
CONTINUOUS
 10
286.375000
 20
34.714000
 40
0.920000
 50
360.000000
 51
540.000000
  0
POLYLINE
  8
1
  6
CONTINUOUS
 66
     1
 70
     0
  0
VERTEX
  8
1
  6
CONTINUOUS
 10
285.465000
 20
34.714000
 42
0.014077
  0
VERTEX
  8
1
  6
CONTINUOUS
 10
285.472655
 20
34.440494
 42
0.014682
  0
VERTEX
  8
1
  6
CONTINUOUS
 10
285.496007
 20
34.167892
 42
0.015083
  0
VERTEX
  8
1
  6
CONTINUOUS
 10
285.533267
 20
33.911958
 42
0.017158
  0
VERTEX
  8
1
  6
CONTINUOUS
 10
285.586917
 20
33.659000
 42
0.018132
  0
VERTEX
  8
1
  6
CONTINUOUS
 10
285.650341
 20
33.437503
 42
0.022643
  0
VERTEX
  8
1
  6
CONTINUOUS
 10
285.731533
 20
33.222005
 42
0.024669
  0
VERTEX
  8
1
  6
CONTINUOUS
 10
285.816033
 20
33.048716
 42
0.033903
  0
VERTEX
  8
1
  6
CONTINUOUS
 10
285.920000
 20
32.886686
 42
0.038143
  0
VERTEX
  8
1
  6
CONTINUOUS
 10
286.020192
 20
32.770891
 42
0.055075
  0
VERTEX
  8
1
  6
CONTINUOUS
 10
286.139475
 20
32.675897
 42
0.062461
  0
VERTEX
  8
1
  6
CONTINUOUS
 10
286.252602
 20
32.623704
 42
0.076107
  0
VERTEX
  8
1
  6
CONTINUOUS
 10
286.375000
 20
32.604000
 42
0.076107
  0
VERTEX
  8
1
  6
CONTINUOUS
 10
286.497398
 20
32.623704
 42
0.062461
  0
VERTEX
  8
1
  6
CONTINUOUS
 10
286.610525
 20
32.675897
 42
0.055075
  0
VERTEX
  8
1
  6
CONTINUOUS
 10
286.729808
 20
32.770891
 42
0.038143
  0
VERTEX
  8
1
  6
CONTINUOUS
 10
286.830000
 20
32.886686
 42
0.033903
  0
VERTEX
  8
1
  6
CONTINUOUS
 10
286.933967
 20
33.048716
 42
0.024669
  0
VERTEX
  8
1
  6
CONTINUOUS
 10
287.018467
 20
33.222005
 42
0.022643
  0
VERTEX
  8
1
  6
CONTINUOUS
 10
287.099659
 20
33.437503
 42
0.018132
  0
VERTEX
  8
1
  6
CONTINUOUS
 10
287.163083
 20
33.659000
 42
0.017158
  0
VERTEX
  8
1
  6
CONTINUOUS
 10
287.216733
 20
33.911958
 42
0.015083
  0
VERTEX
  8
1
  6
CONTINUOUS
 10
287.253993
 20
34.167892
 42
0.014682
  0
VERTEX
  8
1
  6
CONTINUOUS
 10
287.277345
 20
34.440494
 42
0.014077
  0
VERTEX
  8
1
  6
CONTINUOUS
 10
287.285000
 20
34.714000
  0
SEQEND
  8
0
  0
POLYLINE
  8
1
  6
CONTINUOUS
 66
     1
 70
     0
  0
VERTEX
  8
1
  6
CONTINUOUS
 10
285.455000
 20
34.714000
 42
0.014164
  0
VERTEX
  8
1
  6
CONTINUOUS
 10
285.462739
 20
34.439192
 42
0.014772
  0
VERTEX
  8
1
  6
CONTINUOUS
 10
285.486348
 20
34.165304
 42
0.015174
  0
VERTEX
  8
1
  6
CONTINUOUS
 10
285.524021
 20
33.908139
 42
0.017254
  0
VERTEX
  8
1
  6
CONTINUOUS
 10
285.578257
 20
33.654000
 42
0.018230
  0
VERTEX
  8
1
  6
CONTINUOUS
 10
285.642390
 20
33.431420
 42
0.022745
  0
VERTEX
  8
1
  6
CONTINUOUS
 10
285.724462
 20
33.214934
 42
0.024772
  0
VERTEX
  8
1
  6
CONTINUOUS
 10
285.809922
 20
33.040772
 42
0.033979
  0
VERTEX
  8
1
  6
CONTINUOUS
 10
285.915000
 20
32.878026
 42
0.038201
  0
VERTEX
  8
1
  6
CONTINUOUS
 10
286.016356
 20
32.761626
 42
0.054967
  0
VERTEX
  8
1
  6
CONTINUOUS
 10
286.136886
 20
32.666237
 42
0.062243
  0
VERTEX
  8
1
  6
CONTINUOUS
 10
286.251305
 20
32.613778
 42
0.075637
  0
VERTEX
  8
1
  6
CONTINUOUS
 10
286.375000
 20
32.594000
 42
0.075637
  0
VERTEX
  8
1
  6
CONTINUOUS
 10
286.498695
 20
32.613778
 42
0.062243
  0
VERTEX
  8
1
  6
CONTINUOUS
 10
286.613114
 20
32.666237
 42
0.054967
  0
VERTEX
  8
1
  6
CONTINUOUS
 10
286.733644
 20
32.761626
 42
0.038201
  0
VERTEX
  8
1
  6
CONTINUOUS
 10
286.835000
 20
32.878026
 42
0.033979
  0
VERTEX
  8
1
  6
CONTINUOUS
 10
286.940078
 20
33.040772
 42
0.024772
  0
VERTEX
  8
1
  6
CONTINUOUS
 10
287.025538
 20
33.214934
 42
0.022745
  0
VERTEX
  8
1
  6
CONTINUOUS
 10
287.107610
 20
33.431420
 42
0.018230
  0
VERTEX
  8
1
  6
CONTINUOUS
 10
287.171743
 20
33.654000
 42
0.017254
  0
VERTEX
  8
1
  6
CONTINUOUS
 10
287.225979
 20
33.908139
 42
0.015174
  0
VERTEX
  8
1
  6
CONTINUOUS
 10
287.263652
 20
34.165304
 42
0.014772
  0
VERTEX
  8
1
  6
CONTINUOUS
 10
287.287261
 20
34.439192
 42
0.014164
  0
VERTEX
  8
1
  6
CONTINUOUS
 10
287.295000
 20
34.714000
  0
SEQEND
  8
0
  0
TEXT
  8
1
  6
CONTINUOUS
 40
0.075000
 10
286.265000
 20
35.854000
  1
1.80
  7
ROMANC
  0
LINE
  8
1
  6
CONTINUOUS
 10
286.227000
 20
35.892000
 11
285.475000
 21
35.892000
  0
LINE
  8
1
  6
CONTINUOUS
 10
286.522000
 20
35.892000
 11
287.275000
 21
35.892000
  0
LINE
  8
1
  6
CONTINUOUS
 10
285.438000
 20
35.873000
 11
285.512000
 21
35.911000
  0
LINE
  8
1
  6
CONTINUOUS
 10
287.312000
 20
35.911000
 11
287.238000
 21
35.873000
  0
LINE
  8
1
  6
CONTINUOUS
 10
285.475000
 20
34.752000
 11
285.475000
 21
35.930000
  0
LINE
  8
1
  6
CONTINUOUS
 10
287.275000
 20
34.752000
 11
287.275000
 21
35.930000
  0
TEXT
  8
1
  6
CONTINUOUS
 40
0.075000
 10
287.700000
 20
33.995000
  1
3.00
 50
90.000000
  7
ROMANC
  0
LINE
  8
1
  6
CONTINUOUS
 10
287.663000
 20
33.957000
 11
287.663000
 21
32.614000
  0
LINE
  8
1
  6
CONTINUOUS
 10
287.663000
 20
34.269000
 11
287.663000
 21
35.614000
  0
LINE
  8
1
  6
CONTINUOUS
 10
287.682000
 20
32.576000
 11
287.644000
 21
32.652000
  0
LINE
  8
1
  6
CONTINUOUS
 10
287.644000
 20
35.652000
 11
287.682000
 21
35.576000
  0
LINE
  8
1
  6
CONTINUOUS
 10
286.413000
 20
32.614000
 11
287.701000
 21
32.614000
  0
LINE
  8
1
  6
CONTINUOUS
 10
286.413000
 20
35.614000
 11
287.701000
 21
35.614000
  0
ENDSEC
  0
EOF
