  0
SECTION
  2
HEADER
  9
$ACADVER
  1
AC1009
  9
$INSBASE
 10
0.0
 20
0.0
 30
0.0
  9
$EXTMIN
 10
281.396000
 20
29.897000
 30
-2147483.648000
  9
$EXTMAX
 10
283.496000
 20
32.867000
 30
0.000000
  9
$LIMMIN
 10
280.396000
 20
28.897000
  9
$LIMMAX
 10
284.496000
 20
31.867000
  9
$ORTHOMODE
 70
     0
  9
$REGENMODE
 70
     1
  9
$FILLMODE
 70
     1
  9
$QTEXTMODE
 70
     0
  9
$MIRRTEXT
 70
     1
  9
$DRAGMODE
 70
     2
  9
$LTSCALE
 40
1.0
  9
$OSMODE
 70
     0
  9
$ATTMODE
 70
     1
  9
$TEXTSIZE
 40
0.2
  9
$TRACEWID
 40
0.05
  9
$TEXTSTYLE
  7
STANDARD
  9
$CLAYER
  8
0
  9
$CELTYPE
  6
BYLAYER
  9
$CECOLOR
 62
   256
  9
$DIMSCALE
 40
1.0
  9
$DIMASZ
 40
0.18
  9
$DIMEXO
 40
0.0625
  9
$DIMDLI
 40
0.38
  9
$DIMRND
 40
0.0
  9
$DIMDLE
 40
0.0
  9
$DIMEXE
 40
0.18
  9
$DIMTP
 40
0.0
  9
$DIMTM
 40
0.0
  9
$DIMTXT
 40
0.18
  9
$DIMCEN
 40
0.09
  9
$DIMTSZ
 40
0.0
  9
$DIMTOL
 70
     0
  9
$DIMLIM
 70
     0
  9
$DIMTIH
 70
     1
  9
$DIMTOH
 70
     1
  9
$DIMSE1
 70
     0
  9
$DIMSE2
 70
     0
  9
$DIMTAD
 70
     0
  9
$DIMZIN
 70
     0
  9
$DIMBLK
  1

  9
$DIMASO
 70
     1
  9
$DIMSHO
 70
     1
  9
$DIMPOST
  1

  9
$DIMAPOST
  1

  9
$DIMALT
 70
     0
  9
$DIMALTD
 70
     2
  9
$DIMALTF
 40
25.4
  9
$DIMLFAC
 40
1.0
  9
$DIMTOFL
 70
     0
  9
$DIMTVP
 40
0.0
  9
$DIMTIX
 70
     0
  9
$DIMSOXD
 70
     0
  9
$DIMSAH
 70
     0
  9
$DIMBLK1
  1

  9
$DIMBLK2
  1

  9
$DIMSTYLE
  2
*UNNAMED
  9
$DIMCLRD
 70
     0
  9
$DIMCLRE
 70
     0
  9
$DIMCLRT
 70
     0
  9
$DIMTFAC
 40
1.0
  9
$DIMGAP
 40
0.09
  9
$LUNITS
 70
     2
  9
$LUPREC
 70
     4
  9
$AXISMODE
 70
     0
  9
$AXISUNIT
 10
0.0
 20
0.0
  9
$SKETCHINC
 40
0.1
  9
$FILLETRAD
 40
0.0
  9
$AUNITS
 70
     0
  9
$AUPREC
 70
     0
  9
$MENU
  1
acad
  9
$ELEVATION
 40
0.0
  9
$PELEVATION
 40
0.0
  9
$THICKNESS
 40
0.0
  9
$LIMCHECK
 70
     0
  9
$BLIPMODE
 70
     1
  9
$CHAMFERA
 40
0.0
  9
$CHAMFERB
 40
0.0
  9
$SKPOLY
 70
     0
  9
$TDCREATE
 40
2448315.373408102
  9
$TDUPDATE
 40
2448315.373408102
  9
$TDINDWG
 40
0.0000000000
  9
$TDUSRTIMER
 40
0.0000000000
  9
$USRTIMER
 70
     1
  9
$ANGBASE
 50
0.0
  9
$ANGDIR
 70
     0
  9
$PDMODE
 70
     0
  9
$PDSIZE
 40
0.0
  9
$PLINEWID
 40
0.0
  9
$COORDS
 70
     0
  9
$SPLFRAME
 70
     0
  9
$SPLINETYPE
 70
     6
  9
$SPLINESEGS
 70
     8
  9
$ATTDIA
 70
     0
  9
$ATTREQ
 70
     1
  9
$HANDLING
 70
     0
  9
$HANDSEED
  5
0
  9
$SURFTAB1
 70
     6
  9
$SURFTAB2
 70
     6
  9
$SURFTYPE
 70
     6
  9
$SURFU
 70
     6
  9
$SURFV
 70
     6
  9
$UCSNAME
  2

  9
$UCSORG
 10
0.0
 20
0.0
 30
0.0
  9
$UCSXDIR
 10
1.0
 20
0.0
 30
0.0
  9
$UCSYDIR
 10
0.0
 20
1.0
 30
0.0
  9
$PUCSNAME
  2

  9
$PUCSORG
 10
0.0
 20
0.0
 30
0.0
  9
$PUCSXDIR
 10
1.0
 20
0.0
 30
0.0
  9
$PUCSYDIR
 10
0.0
 20
1.0
 30
0.0
  9
$USERI1
 70
     0
  9
$USERI2
 70
     0
  9
$USERI3
 70
     0
  9
$USERI4
 70
     0
  9
$USERI5
 70
     0
  9
$USERR1
 40
0.0
  9
$USERR2
 40
0.0
  9
$USERR3
 40
0.0
  9
$USERR4
 40
0.0
  9
$USERR5
 40
0.0
  9
$WORLDVIEW
 70
     1
  9
$SHADEDGE
 70
     3
  9
$SHADEDIF
 70
    70
  9
$TILEMODE
 70
     1
  9
$MAXACTVP
 70
    16
  9
$PINSBASE
 10
0.0
 20
0.0
 30
0.0
  9
$PLIMCHECK
 70
     0
  9
$PEXTMIN
 10
1.000000E+20
 20
1.000000E+20
 30
1.000000E+20
  9
$PEXTMAX
 10
-1.000000E+20
 20
-1.000000E+20
 30
-1.000000E+20
  9
$PLIMMIN
 10
0.0
 20
0.0
  9
$PLIMMAX
 10
12.0
 20
9.0
  9
$UNITMODE
 70
     0
  9
$VISRETAIN
 70
     0
  0
ENDSEC
  0
SECTION
  2
TABLES
  0
TABLE
  2
LTYPE
 70
    1
  0
LTYPE
  2
CONTINUOUS
 70
    64
3
Solid line
 72
    65
 73
0
 40
0.000000
  0
ENDTAB
  0
TABLE
  2
LAYER
 70
    7
  0
LAYER
  2
0
 70
    64
 62
7
  6
CONTINUOUS
  0
LAYER
  2
1
 70
    64
 62
7
  6
CONTINUOUS
  0
LAYER
  2
7
 70
    64
 62
7
  6
CONTINUOUS
  0
LAYER
  2
8
 70
    64
 62
7
  6
CONTINUOUS
  0
LAYER
  2
9
 70
    64
 62
7
  6
CONTINUOUS
  0
LAYER
  2
22
 70
    64
 62
7
  6
CONTINUOUS
  0
LAYER
  2
0
 70
    64
 62
7
  6
CONTINUOUS
  0
ENDTAB
  0
TABLE
  2
STYLE
 70
    1
  0
STYLE
  2
ROMANC
70
     0
 40
0.0
 41
1.0
 50
0.0
 71
     0
 42
0.2
  3
ROMANC
  4

  0
ENDTAB
  0
ENDSEC
  0
SECTION
  2
BLOCKS
  0
ENDSEC
  0
SECTION
  2
ENTITIES
  0
POLYLINE
  8
0
  6
CONTINUOUS
 66
     1
 70
     1
  0
VERTEX
  8
0
  6
CONTINUOUS
 10
281.396000
 20
32.867000
  0
VERTEX
  8
0
  6
CONTINUOUS
 10
283.496000
 20
32.867000
  0
VERTEX
  8
0
  6
CONTINUOUS
 10
283.496000
 20
29.897000
  0
VERTEX
  8
0
  6
CONTINUOUS
 10
281.396000
 20
29.897000
  0
SEQEND
  8
0
  0
TEXT
  8
0
  6
CONTINUOUS
 40
0.060000
 10
282.015000
 20
32.425000
  1
ESCALA  1:10
  7
ROMANC
  0
TEXT
  8
0
  6
CONTINUOUS
 40
0.018000
 10
282.563000
 20
32.351000
  1
2
  7
ROMANC
  0
TEXT
  8
0
  6
CONTINUOUS
 40
0.060000
 10
282.004000
 20
32.539000
  1
TIPUS   T36B
  7
ROMANC
  0
TEXT
  8
0
  6
CONTINUOUS
 40
0.060000
 10
282.023000
 20
32.297000
  1
S = 36 dm
  7
ROMANC
  0
TEXT
  8
0
  6
CONTINUOUS
 40
0.060000
 10
282.013000
 20
32.166000
  1
P = 23 dm
  7
ROMANC
  0
TEXT
  8
0
  6
CONTINUOUS
 40
0.019000
 10
282.850000
 20
31.018000
  1
0.25
 50
90.000000
  7
ROMANC
  0
LINE
  8
0
  6
CONTINUOUS
 10
282.841000
 20
31.008000
 11
282.841000
 21
30.923000
  0
LINE
  8
0
  6
CONTINUOUS
 10
282.841000
 20
31.088000
 11
282.841000
 21
31.173000
  0
LINE
  8
0
  6
CONTINUOUS
 10
282.846000
 20
30.914000
 11
282.836000
 21
30.932000
  0
LINE
  8
0
  6
CONTINUOUS
 10
282.836000
 20
31.182000
 11
282.846000
 21
31.164000
  0
LINE
  8
0
  6
CONTINUOUS
 10
282.354000
 20
30.923000
 11
282.851000
 21
30.923000
  0
LINE
  8
0
  6
CONTINUOUS
 10
282.779000
 20
31.173000
 11
282.851000
 21
31.173000
  0
TEXT
  8
0
  6
CONTINUOUS
 40
0.019000
 10
282.850000
 20
31.268000
  1
0.25
 50
90.000000
  7
ROMANC
  0
LINE
  8
0
  6
CONTINUOUS
 10
282.841000
 20
31.258000
 11
282.841000
 21
31.173000
  0
LINE
  8
0
  6
CONTINUOUS
 10
282.841000
 20
31.338000
 11
282.841000
 21
31.423000
  0
LINE
  8
0
  6
CONTINUOUS
 10
282.846000
 20
31.164000
 11
282.836000
 21
31.182000
  0
LINE
  8
0
  6
CONTINUOUS
 10
282.836000
 20
31.432000
 11
282.846000
 21
31.414000
  0
LINE
  8
0
  6
CONTINUOUS
 10
282.354000
 20
31.423000
 11
282.851000
 21
31.423000
  0
ARC
  8
0
  6
CONTINUOUS
 10
282.344000
 20
30.936750
 40
0.486250
 50
29.068908
 51
150.931089
  0
ARC
  8
0
  6
CONTINUOUS
 10
282.344000
 20
35.234095
 40
4.311095
 50
264.342431
 51
275.657569
  0
LINE
  8
0
  6
CONTINUOUS
 10
281.919000
 20
30.944000
 11
281.919000
 21
31.173000
  0
TEXT
  8
0
  6
CONTINUOUS
 40
0.019000
 10
282.928000
 20
31.143000
  1
0.50
 50
90.000000
  7
ROMANC
  0
LINE
  8
0
  6
CONTINUOUS
 10
282.919000
 20
31.133000
 11
282.919000
 21
30.923000
  0
LINE
  8
0
  6
CONTINUOUS
 10
282.919000
 20
31.213000
 11
282.919000
 21
31.423000
  0
LINE
  8
0
  6
CONTINUOUS
 10
282.924000
 20
30.914000
 11
282.914000
 21
30.932000
  0
LINE
  8
0
  6
CONTINUOUS
 10
282.914000
 20
31.432000
 11
282.924000
 21
31.414000
  0
LINE
  8
0
  6
CONTINUOUS
 10
282.364000
 20
30.923000
 11
282.929000
 21
30.923000
  0
LINE
  8
0
  6
CONTINUOUS
 10
282.851000
 20
31.423000
 11
282.929000
 21
31.423000
  0
LINE
  8
0
  6
CONTINUOUS
 10
282.769000
 20
31.173000
 11
282.769000
 21
30.944000
  0
TEXT
  8
0
  6
CONTINUOUS
 40
0.019000
 10
282.314000
 20
30.824000
  1
0.85
  7
ROMANC
  0
LINE
  8
0
  6
CONTINUOUS
 10
282.304000
 20
30.833000
 11
281.919000
 21
30.833000
  0
LINE
  8
0
  6
CONTINUOUS
 10
282.384000
 20
30.833000
 11
282.769000
 21
30.833000
  0
LINE
  8
0
  6
CONTINUOUS
 10
281.910000
 20
30.828000
 11
281.928000
 21
30.838000
  0
LINE
  8
0
  6
CONTINUOUS
 10
282.778000
 20
30.838000
 11
282.760000
 21
30.828000
  0
LINE
  8
0
  6
CONTINUOUS
 10
281.919000
 20
30.934000
 11
281.919000
 21
30.823000
  0
LINE
  8
0
  6
CONTINUOUS
 10
282.769000
 20
30.934000
 11
282.769000
 21
30.823000
  0
ARC
  8
0
  6
CONTINUOUS
 10
282.344000
 20
30.936750
 40
0.489250
 50
28.977694
 51
151.022306
  0
ARC
  8
0
  6
CONTINUOUS
 10
282.344000
 20
30.936750
 40
0.492250
 50
28.887333
 51
151.112667
  0
LINE
  8
0
  6
CONTINUOUS
 10
282.772000
 20
31.174000
 11
282.772000
 21
30.941000
  0
LINE
  8
0
  6
CONTINUOUS
 10
282.775000
 20
31.175000
 11
282.775000
 21
30.939000
  0
ARC
  8
0
  6
CONTINUOUS
 10
282.344000
 20
35.234095
 40
4.314095
 50
264.306339
 51
275.693661
  0
ARC
  8
0
  6
CONTINUOUS
 10
282.344000
 20
35.234095
 40
4.317095
 50
264.270294
 51
275.729706
  0
LINE
  8
0
  6
CONTINUOUS
 10
281.916000
 20
30.941000
 11
281.916000
 21
31.174000
  0
LINE
  8
0
  6
CONTINUOUS
 10
281.913000
 20
30.939000
 11
281.913000
 21
31.175000
  0
ENDSEC
  0
EOF
