  0
SECTION
  2
HEADER
  9
$ACADVER
  1
AC1009
  9
$INSBASE
 10
0.0
 20
0.0
 30
0.0
  9
$EXTMIN
 10
281.396000
 20
29.897000
 30
-2147483.648000
  9
$EXTMAX
 10
291.896000
 20
44.747000
 30
0.000000
  9
$LIMMIN
 10
280.396000
 20
28.897000
  9
$LIMMAX
 10
292.896000
 20
43.747000
  9
$ORTHOMODE
 70
     0
  9
$REGENMODE
 70
     1
  9
$FILLMODE
 70
     1
  9
$QTEXTMODE
 70
     0
  9
$MIRRTEXT
 70
     1
  9
$DRAGMODE
 70
     2
  9
$LTSCALE
 40
1.0
  9
$OSMODE
 70
     0
  9
$ATTMODE
 70
     1
  9
$TEXTSIZE
 40
0.2
  9
$TRACEWID
 40
0.05
  9
$TEXTSTYLE
  7
STANDARD
  9
$CLAYER
  8
0
  9
$CELTYPE
  6
BYLAYER
  9
$CECOLOR
 62
   256
  9
$DIMSCALE
 40
1.0
  9
$DIMASZ
 40
0.18
  9
$DIMEXO
 40
0.0625
  9
$DIMDLI
 40
0.38
  9
$DIMRND
 40
0.0
  9
$DIMDLE
 40
0.0
  9
$DIMEXE
 40
0.18
  9
$DIMTP
 40
0.0
  9
$DIMTM
 40
0.0
  9
$DIMTXT
 40
0.18
  9
$DIMCEN
 40
0.09
  9
$DIMTSZ
 40
0.0
  9
$DIMTOL
 70
     0
  9
$DIMLIM
 70
     0
  9
$DIMTIH
 70
     1
  9
$DIMTOH
 70
     1
  9
$DIMSE1
 70
     0
  9
$DIMSE2
 70
     0
  9
$DIMTAD
 70
     0
  9
$DIMZIN
 70
     0
  9
$DIMBLK
  1

  9
$DIMASO
 70
     1
  9
$DIMSHO
 70
     1
  9
$DIMPOST
  1

  9
$DIMAPOST
  1

  9
$DIMALT
 70
     0
  9
$DIMALTD
 70
     2
  9
$DIMALTF
 40
25.4
  9
$DIMLFAC
 40
1.0
  9
$DIMTOFL
 70
     0
  9
$DIMTVP
 40
0.0
  9
$DIMTIX
 70
     0
  9
$DIMSOXD
 70
     0
  9
$DIMSAH
 70
     0
  9
$DIMBLK1
  1

  9
$DIMBLK2
  1

  9
$DIMSTYLE
  2
*UNNAMED
  9
$DIMCLRD
 70
     0
  9
$DIMCLRE
 70
     0
  9
$DIMCLRT
 70
     0
  9
$DIMTFAC
 40
1.0
  9
$DIMGAP
 40
0.09
  9
$LUNITS
 70
     2
  9
$LUPREC
 70
     4
  9
$AXISMODE
 70
     0
  9
$AXISUNIT
 10
0.0
 20
0.0
  9
$SKETCHINC
 40
0.1
  9
$FILLETRAD
 40
0.0
  9
$AUNITS
 70
     0
  9
$AUPREC
 70
     0
  9
$MENU
  1
acad
  9
$ELEVATION
 40
0.0
  9
$PELEVATION
 40
0.0
  9
$THICKNESS
 40
0.0
  9
$LIMCHECK
 70
     0
  9
$BLIPMODE
 70
     1
  9
$CHAMFERA
 40
0.0
  9
$CHAMFERB
 40
0.0
  9
$SKPOLY
 70
     0
  9
$TDCREATE
 40
2448315.373408102
  9
$TDUPDATE
 40
2448315.373408102
  9
$TDINDWG
 40
0.0000000000
  9
$TDUSRTIMER
 40
0.0000000000
  9
$USRTIMER
 70
     1
  9
$ANGBASE
 50
0.0
  9
$ANGDIR
 70
     0
  9
$PDMODE
 70
     0
  9
$PDSIZE
 40
0.0
  9
$PLINEWID
 40
0.0
  9
$COORDS
 70
     0
  9
$SPLFRAME
 70
     0
  9
$SPLINETYPE
 70
     6
  9
$SPLINESEGS
 70
     8
  9
$ATTDIA
 70
     0
  9
$ATTREQ
 70
     1
  9
$HANDLING
 70
     0
  9
$HANDSEED
  5
0
  9
$SURFTAB1
 70
     6
  9
$SURFTAB2
 70
     6
  9
$SURFTYPE
 70
     6
  9
$SURFU
 70
     6
  9
$SURFV
 70
     6
  9
$UCSNAME
  2

  9
$UCSORG
 10
0.0
 20
0.0
 30
0.0
  9
$UCSXDIR
 10
1.0
 20
0.0
 30
0.0
  9
$UCSYDIR
 10
0.0
 20
1.0
 30
0.0
  9
$PUCSNAME
  2

  9
$PUCSORG
 10
0.0
 20
0.0
 30
0.0
  9
$PUCSXDIR
 10
1.0
 20
0.0
 30
0.0
  9
$PUCSYDIR
 10
0.0
 20
1.0
 30
0.0
  9
$USERI1
 70
     0
  9
$USERI2
 70
     0
  9
$USERI3
 70
     0
  9
$USERI4
 70
     0
  9
$USERI5
 70
     0
  9
$USERR1
 40
0.0
  9
$USERR2
 40
0.0
  9
$USERR3
 40
0.0
  9
$USERR4
 40
0.0
  9
$USERR5
 40
0.0
  9
$WORLDVIEW
 70
     1
  9
$SHADEDGE
 70
     3
  9
$SHADEDIF
 70
    70
  9
$TILEMODE
 70
     1
  9
$MAXACTVP
 70
    16
  9
$PINSBASE
 10
0.0
 20
0.0
 30
0.0
  9
$PLIMCHECK
 70
     0
  9
$PEXTMIN
 10
1.000000E+20
 20
1.000000E+20
 30
1.000000E+20
  9
$PEXTMAX
 10
-1.000000E+20
 20
-1.000000E+20
 30
-1.000000E+20
  9
$PLIMMIN
 10
0.0
 20
0.0
  9
$PLIMMAX
 10
12.0
 20
9.0
  9
$UNITMODE
 70
     0
  9
$VISRETAIN
 70
     0
  0
ENDSEC
  0
SECTION
  2
TABLES
  0
TABLE
  2
LTYPE
 70
    1
  0
LTYPE
  2
CONTINUOUS
 70
    64
3
Solid line
 72
    65
 73
0
 40
0.000000
  0
ENDTAB
  0
TABLE
  2
LAYER
 70
    8
  0
LAYER
  2
0
 70
    64
 62
7
  6
CONTINUOUS
  0
LAYER
  2
1
 70
    64
 62
7
  6
CONTINUOUS
  0
LAYER
  2
7
 70
    64
 62
7
  6
CONTINUOUS
  0
LAYER
  2
8
 70
    64
 62
7
  6
CONTINUOUS
  0
LAYER
  2
9
 70
    64
 62
7
  6
CONTINUOUS
  0
LAYER
  2
22
 70
    64
 62
7
  6
CONTINUOUS
  0
LAYER
  2
25
 70
    64
 62
7
  6
CONTINUOUS
  0
LAYER
  2
0
 70
    64
 62
7
  6
CONTINUOUS
  0
ENDTAB
  0
TABLE
  2
STYLE
 70
    1
  0
STYLE
  2
ROMANC
70
     0
 40
0.0
 41
1.0
 50
0.0
 71
     0
 42
0.2
  3
ROMANC
  4

  0
ENDTAB
  0
ENDSEC
  0
SECTION
  2
BLOCKS
  0
ENDSEC
  0
SECTION
  2
ENTITIES
  0
TEXT
  8
0
  6
CONTINUOUS
 40
0.100000
 10
286.909000
 20
41.324000
  1
2
  7
ROMANC
  0
TEXT
  8
0
  6
CONTINUOUS
 40
0.300000
 10
283.926000
 20
41.768000
  1
ESCALA  1:50
  7
ROMANC
  0
POLYLINE
  8
0
  6
CONTINUOUS
 66
     1
 70
     1
  0
VERTEX
  8
0
  6
CONTINUOUS
 10
281.396000
 20
44.747000
  0
VERTEX
  8
0
  6
CONTINUOUS
 10
291.896000
 20
44.747000
  0
VERTEX
  8
0
  6
CONTINUOUS
 10
291.896000
 20
29.897000
  0
VERTEX
  8
0
  6
CONTINUOUS
 10
281.396000
 20
29.897000
  0
SEQEND
  8
0
  0
TEXT
  8
0
  6
CONTINUOUS
 40
0.300000
 10
283.926000
 20
42.381000
  1
TIPUS   T335
  7
ROMANC
  0
ARC
  8
1
  6
CONTINUOUS
 10
286.608000
 20
32.182167
 40
0.354167
 50
188.797411
 51
351.202589
  0
LINE
  8
1
  6
CONTINUOUS
 10
285.708000
 20
32.278000
 11
285.608000
 21
33.078000
  0
TEXT
  8
0
  6
CONTINUOUS
 40
0.300000
 10
283.922000
 20
40.529000
  1
P = 72 dm
  7
ROMANC
  0
TEXT
  8
0
  6
CONTINUOUS
 40
0.300000
 10
283.945000
 20
41.099000
  1
S = 335 dm
  7
ROMANC
  0
LINE
  8
1
  6
CONTINUOUS
 10
286.258000
 20
32.278000
 11
285.708000
 21
32.278000
  0
TEXT
  8
1
  6
CONTINUOUS
 40
0.075000
 10
285.864000
 20
31.690000
  1
0.55
  7
ROMANC
  0
LINE
  8
1
  6
CONTINUOUS
 10
285.558000
 20
31.728000
 11
285.708000
 21
31.728000
  0
LINE
  8
1
  6
CONTINUOUS
 10
286.408000
 20
31.728000
 11
286.258000
 21
31.728000
  0
LINE
  8
1
  6
CONTINUOUS
 10
285.746000
 20
31.747000
 11
285.670000
 21
31.709000
  0
LINE
  8
1
  6
CONTINUOUS
 10
286.220000
 20
31.709000
 11
286.296000
 21
31.747000
  0
LINE
  8
1
  6
CONTINUOUS
 10
285.708000
 20
32.240000
 11
285.708000
 21
31.690000
  0
LINE
  8
1
  6
CONTINUOUS
 10
286.258000
 20
32.240000
 11
286.258000
 21
31.690000
  0
LINE
  8
1
  6
CONTINUOUS
 10
286.258000
 20
32.128000
 11
286.258000
 21
32.278000
  0
LINE
  8
1
  6
CONTINUOUS
 10
287.508000
 20
32.278000
 11
286.958000
 21
32.278000
  0
TEXT
  8
1
  6
CONTINUOUS
 40
0.075000
 10
286.489000
 20
31.566000
  1
0.70
  7
ROMANC
  0
LINE
  8
1
  6
CONTINUOUS
 10
286.451000
 20
31.603000
 11
286.258000
 21
31.603000
  0
LINE
  8
1
  6
CONTINUOUS
 10
286.763000
 20
31.603000
 11
286.958000
 21
31.603000
  0
LINE
  8
1
  6
CONTINUOUS
 10
286.220000
 20
31.584000
 11
286.296000
 21
31.622000
  0
LINE
  8
1
  6
CONTINUOUS
 10
286.996000
 20
31.622000
 11
286.920000
 21
31.584000
  0
LINE
  8
1
  6
CONTINUOUS
 10
286.258000
 20
32.240000
 11
286.258000
 21
31.565000
  0
LINE
  8
1
  6
CONTINUOUS
 10
286.958000
 20
32.240000
 11
286.958000
 21
31.565000
  0
TEXT
  8
1
  6
CONTINUOUS
 40
0.075000
 10
287.114000
 20
31.690000
  1
0.55
  7
ROMANC
  0
LINE
  8
1
  6
CONTINUOUS
 10
286.808000
 20
31.728000
 11
286.958000
 21
31.728000
  0
LINE
  8
1
  6
CONTINUOUS
 10
287.658000
 20
31.728000
 11
287.508000
 21
31.728000
  0
LINE
  8
1
  6
CONTINUOUS
 10
286.996000
 20
31.747000
 11
286.920000
 21
31.709000
  0
LINE
  8
1
  6
CONTINUOUS
 10
287.470000
 20
31.709000
 11
287.546000
 21
31.747000
  0
LINE
  8
1
  6
CONTINUOUS
 10
286.958000
 20
32.240000
 11
286.958000
 21
31.690000
  0
LINE
  8
1
  6
CONTINUOUS
 10
287.508000
 20
32.240000
 11
287.508000
 21
31.690000
  0
LINE
  8
1
  6
CONTINUOUS
 10
287.608000
 20
33.078000
 11
287.508000
 21
32.278000
  0
TEXT
  8
1
  6
CONTINUOUS
 40
0.075000
 10
286.498000
 20
31.398000
  1
1.80
  7
ROMANC
  0
LINE
  8
1
  6
CONTINUOUS
 10
286.460000
 20
31.435000
 11
285.708000
 21
31.435000
  0
LINE
  8
1
  6
CONTINUOUS
 10
286.755000
 20
31.435000
 11
287.508000
 21
31.435000
  0
LINE
  8
1
  6
CONTINUOUS
 10
285.670000
 20
31.416000
 11
285.746000
 21
31.454000
  0
LINE
  8
1
  6
CONTINUOUS
 10
287.546000
 20
31.454000
 11
287.470000
 21
31.416000
  0
LINE
  8
1
  6
CONTINUOUS
 10
285.708000
 20
32.240000
 11
285.708000
 21
31.397000
  0
LINE
  8
1
  6
CONTINUOUS
 10
287.508000
 20
32.240000
 11
287.508000
 21
31.397000
  0
LINE
  8
1
  6
CONTINUOUS
 10
286.958000
 20
32.278000
 11
286.958000
 21
32.128000
  0
TEXT
  8
1
  6
CONTINUOUS
 40
0.075000
 10
287.728000
 20
31.931000
  1
0.45
 50
90.000000
  7
ROMANC
  0
LINE
  8
1
  6
CONTINUOUS
 10
287.691000
 20
31.678000
 11
287.691000
 21
31.828000
  0
LINE
  8
1
  6
CONTINUOUS
 10
287.691000
 20
32.428000
 11
287.691000
 21
32.278000
  0
LINE
  8
1
  6
CONTINUOUS
 10
287.672000
 20
31.866000
 11
287.710000
 21
31.790000
  0
LINE
  8
1
  6
CONTINUOUS
 10
287.710000
 20
32.240000
 11
287.672000
 21
32.316000
  0
LINE
  8
1
  6
CONTINUOUS
 10
286.646000
 20
31.828000
 11
287.729000
 21
31.828000
  0
LINE
  8
1
  6
CONTINUOUS
 10
286.996000
 20
32.278000
 11
287.729000
 21
32.278000
  0
TEXT
  8
1
  6
CONTINUOUS
 40
0.075000
 10
287.828000
 20
32.559000
  1
0.80
 50
90.000000
  7
ROMANC
  0
LINE
  8
1
  6
CONTINUOUS
 10
287.790000
 20
32.521000
 11
287.790000
 21
32.278000
  0
LINE
  8
1
  6
CONTINUOUS
 10
287.790000
 20
32.833000
 11
287.790000
 21
33.078000
  0
LINE
  8
1
  6
CONTINUOUS
 10
287.809000
 20
32.240000
 11
287.771000
 21
32.316000
  0
LINE
  8
1
  6
CONTINUOUS
 10
287.771000
 20
33.116000
 11
287.809000
 21
33.040000
  0
LINE
  8
1
  6
CONTINUOUS
 10
287.546000
 20
32.278000
 11
287.828000
 21
32.278000
  0
LINE
  8
1
  6
CONTINUOUS
 10
287.646000
 20
33.078000
 11
287.828000
 21
33.078000
  0
TEXT
  8
1
  6
CONTINUOUS
 40
0.075000
 10
287.828000
 20
33.468000
  1
1.00
 50
90.000000
  7
ROMANC
  0
LINE
  8
1
  6
CONTINUOUS
 10
287.790000
 20
33.430000
 11
287.790000
 21
33.078000
  0
LINE
  8
1
  6
CONTINUOUS
 10
287.790000
 20
33.725000
 11
287.790000
 21
34.078000
  0
LINE
  8
1
  6
CONTINUOUS
 10
287.809000
 20
33.040000
 11
287.771000
 21
33.116000
  0
LINE
  8
1
  6
CONTINUOUS
 10
287.771000
 20
34.116000
 11
287.809000
 21
34.040000
  0
LINE
  8
1
  6
CONTINUOUS
 10
286.646000
 20
34.078000
 11
287.828000
 21
34.078000
  0
TEXT
  8
1
  6
CONTINUOUS
 40
0.075000
 10
288.010000
 20
32.834000
  1
2.25
 50
90.000000
  7
ROMANC
  0
LINE
  8
1
  6
CONTINUOUS
 10
287.973000
 20
32.796000
 11
287.973000
 21
31.828000
  0
LINE
  8
1
  6
CONTINUOUS
 10
287.973000
 20
33.108000
 11
287.973000
 21
34.078000
  0
LINE
  8
1
  6
CONTINUOUS
 10
287.992000
 20
31.790000
 11
287.954000
 21
31.866000
  0
LINE
  8
1
  6
CONTINUOUS
 10
287.954000
 20
34.116000
 11
287.992000
 21
34.040000
  0
LINE
  8
1
  6
CONTINUOUS
 10
286.646000
 20
31.828000
 11
288.011000
 21
31.828000
  0
LINE
  8
1
  6
CONTINUOUS
 10
286.646000
 20
34.078000
 11
288.011000
 21
34.078000
  0
ARC
  8
1
  6
CONTINUOUS
 10
286.608000
 20
33.078000
 40
1.000000
 50
0.000000
 51
180.000000
  0
TEXT
  8
1
  6
CONTINUOUS
 40
0.075000
 10
286.489000
 20
34.146000
  1
2.00
  7
ROMANC
  0
LINE
  8
1
  6
CONTINUOUS
 10
286.451000
 20
34.184000
 11
285.608000
 21
34.184000
  0
LINE
  8
1
  6
CONTINUOUS
 10
286.763000
 20
34.184000
 11
287.608000
 21
34.184000
  0
LINE
  8
1
  6
CONTINUOUS
 10
285.570000
 20
34.165000
 11
285.646000
 21
34.203000
  0
LINE
  8
1
  6
CONTINUOUS
 10
287.646000
 20
34.203000
 11
287.570000
 21
34.165000
  0
LINE
  8
1
  6
CONTINUOUS
 10
285.608000
 20
33.116000
 11
285.608000
 21
34.222000
  0
LINE
  8
1
  6
CONTINUOUS
 10
287.608000
 20
33.116000
 11
287.608000
 21
34.222000
  0
ARC
  8
1
  6
CONTINUOUS
 10
286.608000
 20
33.078000
 40
1.010000
 50
0.332647
 51
180.114369
  0
ARC
  8
1
  6
CONTINUOUS
 10
286.608000
 20
33.078000
 40
1.020000
 50
0.276086
 51
180.170550
  0
LINE
  8
1
  6
CONTINUOUS
 10
287.618000
 20
33.084000
 11
287.516000
 21
32.268000
  0
LINE
  8
1
  6
CONTINUOUS
 10
287.628000
 20
33.083000
 11
287.525000
 21
32.258000
  0
LINE
  8
1
  6
CONTINUOUS
 10
287.516000
 20
32.268000
 11
286.968000
 21
32.268000
  0
LINE
  8
1
  6
CONTINUOUS
 10
287.525000
 20
32.258000
 11
286.978000
 21
32.258000
  0
LINE
  8
1
  6
CONTINUOUS
 10
286.968000
 20
32.268000
 11
286.968000
 21
32.128000
  0
LINE
  8
1
  6
CONTINUOUS
 10
286.978000
 20
32.258000
 11
286.978000
 21
32.126000
  0
ARC
  8
1
  6
CONTINUOUS
 10
286.608000
 20
32.182167
 40
0.364167
 50
188.797411
 51
351.202589
  0
ARC
  8
1
  6
CONTINUOUS
 10
286.608000
 20
32.182167
 40
0.374167
 50
188.558611
 51
351.441389
  0
LINE
  8
1
  6
CONTINUOUS
 10
286.248000
 20
32.128000
 11
286.248000
 21
32.268000
  0
LINE
  8
1
  6
CONTINUOUS
 10
286.238000
 20
32.126000
 11
286.238000
 21
32.258000
  0
LINE
  8
1
  6
CONTINUOUS
 10
286.248000
 20
32.268000
 11
285.699000
 21
32.268000
  0
LINE
  8
1
  6
CONTINUOUS
 10
286.238000
 20
32.258000
 11
285.690000
 21
32.258000
  0
LINE
  8
1
  6
CONTINUOUS
 10
285.699000
 20
32.268000
 11
285.598000
 21
33.076000
  0
LINE
  8
1
  6
CONTINUOUS
 10
285.690000
 20
32.258000
 11
285.588000
 21
33.075000
  0
ENDSEC
  0
EOF
