  0
SECTION
  2
HEADER
  9
$ACADVER
  1
AC1009
  9
$INSBASE
 10
0.0
 20
0.0
 30
0.0
  9
$EXTMIN
 10
281.396000
 20
29.897000
 30
-2147483.648000
  9
$EXTMAX
 10
291.896000
 20
44.747000
 30
0.000000
  9
$LIMMIN
 10
280.396000
 20
28.897000
  9
$LIMMAX
 10
292.896000
 20
43.747000
  9
$ORTHOMODE
 70
     0
  9
$REGENMODE
 70
     1
  9
$FILLMODE
 70
     1
  9
$QTEXTMODE
 70
     0
  9
$MIRRTEXT
 70
     1
  9
$DRAGMODE
 70
     2
  9
$LTSCALE
 40
1.0
  9
$OSMODE
 70
     0
  9
$ATTMODE
 70
     1
  9
$TEXTSIZE
 40
0.2
  9
$TRACEWID
 40
0.05
  9
$TEXTSTYLE
  7
STANDARD
  9
$CLAYER
  8
0
  9
$CELTYPE
  6
BYLAYER
  9
$CECOLOR
 62
   256
  9
$DIMSCALE
 40
1.0
  9
$DIMASZ
 40
0.18
  9
$DIMEXO
 40
0.0625
  9
$DIMDLI
 40
0.38
  9
$DIMRND
 40
0.0
  9
$DIMDLE
 40
0.0
  9
$DIMEXE
 40
0.18
  9
$DIMTP
 40
0.0
  9
$DIMTM
 40
0.0
  9
$DIMTXT
 40
0.18
  9
$DIMCEN
 40
0.09
  9
$DIMTSZ
 40
0.0
  9
$DIMTOL
 70
     0
  9
$DIMLIM
 70
     0
  9
$DIMTIH
 70
     1
  9
$DIMTOH
 70
     1
  9
$DIMSE1
 70
     0
  9
$DIMSE2
 70
     0
  9
$DIMTAD
 70
     0
  9
$DIMZIN
 70
     0
  9
$DIMBLK
  1

  9
$DIMASO
 70
     1
  9
$DIMSHO
 70
     1
  9
$DIMPOST
  1

  9
$DIMAPOST
  1

  9
$DIMALT
 70
     0
  9
$DIMALTD
 70
     2
  9
$DIMALTF
 40
25.4
  9
$DIMLFAC
 40
1.0
  9
$DIMTOFL
 70
     0
  9
$DIMTVP
 40
0.0
  9
$DIMTIX
 70
     0
  9
$DIMSOXD
 70
     0
  9
$DIMSAH
 70
     0
  9
$DIMBLK1
  1

  9
$DIMBLK2
  1

  9
$DIMSTYLE
  2
*UNNAMED
  9
$DIMCLRD
 70
     0
  9
$DIMCLRE
 70
     0
  9
$DIMCLRT
 70
     0
  9
$DIMTFAC
 40
1.0
  9
$DIMGAP
 40
0.09
  9
$LUNITS
 70
     2
  9
$LUPREC
 70
     4
  9
$AXISMODE
 70
     0
  9
$AXISUNIT
 10
0.0
 20
0.0
  9
$SKETCHINC
 40
0.1
  9
$FILLETRAD
 40
0.0
  9
$AUNITS
 70
     0
  9
$AUPREC
 70
     0
  9
$MENU
  1
acad
  9
$ELEVATION
 40
0.0
  9
$PELEVATION
 40
0.0
  9
$THICKNESS
 40
0.0
  9
$LIMCHECK
 70
     0
  9
$BLIPMODE
 70
     1
  9
$CHAMFERA
 40
0.0
  9
$CHAMFERB
 40
0.0
  9
$SKPOLY
 70
     0
  9
$TDCREATE
 40
2448315.373408102
  9
$TDUPDATE
 40
2448315.373408102
  9
$TDINDWG
 40
0.0000000000
  9
$TDUSRTIMER
 40
0.0000000000
  9
$USRTIMER
 70
     1
  9
$ANGBASE
 50
0.0
  9
$ANGDIR
 70
     0
  9
$PDMODE
 70
     0
  9
$PDSIZE
 40
0.0
  9
$PLINEWID
 40
0.0
  9
$COORDS
 70
     0
  9
$SPLFRAME
 70
     0
  9
$SPLINETYPE
 70
     6
  9
$SPLINESEGS
 70
     8
  9
$ATTDIA
 70
     0
  9
$ATTREQ
 70
     1
  9
$HANDLING
 70
     0
  9
$HANDSEED
  5
0
  9
$SURFTAB1
 70
     6
  9
$SURFTAB2
 70
     6
  9
$SURFTYPE
 70
     6
  9
$SURFU
 70
     6
  9
$SURFV
 70
     6
  9
$UCSNAME
  2

  9
$UCSORG
 10
0.0
 20
0.0
 30
0.0
  9
$UCSXDIR
 10
1.0
 20
0.0
 30
0.0
  9
$UCSYDIR
 10
0.0
 20
1.0
 30
0.0
  9
$PUCSNAME
  2

  9
$PUCSORG
 10
0.0
 20
0.0
 30
0.0
  9
$PUCSXDIR
 10
1.0
 20
0.0
 30
0.0
  9
$PUCSYDIR
 10
0.0
 20
1.0
 30
0.0
  9
$USERI1
 70
     0
  9
$USERI2
 70
     0
  9
$USERI3
 70
     0
  9
$USERI4
 70
     0
  9
$USERI5
 70
     0
  9
$USERR1
 40
0.0
  9
$USERR2
 40
0.0
  9
$USERR3
 40
0.0
  9
$USERR4
 40
0.0
  9
$USERR5
 40
0.0
  9
$WORLDVIEW
 70
     1
  9
$SHADEDGE
 70
     3
  9
$SHADEDIF
 70
    70
  9
$TILEMODE
 70
     1
  9
$MAXACTVP
 70
    16
  9
$PINSBASE
 10
0.0
 20
0.0
 30
0.0
  9
$PLIMCHECK
 70
     0
  9
$PEXTMIN
 10
1.000000E+20
 20
1.000000E+20
 30
1.000000E+20
  9
$PEXTMAX
 10
-1.000000E+20
 20
-1.000000E+20
 30
-1.000000E+20
  9
$PLIMMIN
 10
0.0
 20
0.0
  9
$PLIMMAX
 10
12.0
 20
9.0
  9
$UNITMODE
 70
     0
  9
$VISRETAIN
 70
     0
  0
ENDSEC
  0
SECTION
  2
TABLES
  0
TABLE
  2
LTYPE
 70
    1
  0
LTYPE
  2
CONTINUOUS
 70
    64
3
Solid line
 72
    65
 73
0
 40
0.000000
  0
ENDTAB
  0
TABLE
  2
LAYER
 70
    8
  0
LAYER
  2
0
 70
    64
 62
7
  6
CONTINUOUS
  0
LAYER
  2
1
 70
    64
 62
7
  6
CONTINUOUS
  0
LAYER
  2
7
 70
    64
 62
7
  6
CONTINUOUS
  0
LAYER
  2
8
 70
    64
 62
7
  6
CONTINUOUS
  0
LAYER
  2
9
 70
    64
 62
7
  6
CONTINUOUS
  0
LAYER
  2
22
 70
    64
 62
7
  6
CONTINUOUS
  0
LAYER
  2
25
 70
    64
 62
7
  6
CONTINUOUS
  0
LAYER
  2
0
 70
    64
 62
7
  6
CONTINUOUS
  0
ENDTAB
  0
TABLE
  2
STYLE
 70
    1
  0
STYLE
  2
ROMANC
70
     0
 40
0.0
 41
1.0
 50
0.0
 71
     0
 42
0.2
  3
ROMANC
  4

  0
ENDTAB
  0
ENDSEC
  0
SECTION
  2
BLOCKS
  0
ENDSEC
  0
SECTION
  2
ENTITIES
  0
TEXT
  8
0
  6
CONTINUOUS
 40
0.100000
 10
286.909000
 20
41.324000
  1
2
  7
ROMANC
  0
TEXT
  8
0
  6
CONTINUOUS
 40
0.300000
 10
283.926000
 20
41.768000
  1
ESCALA  1:50
  7
ROMANC
  0
POLYLINE
  8
0
  6
CONTINUOUS
 66
     1
 70
     1
  0
VERTEX
  8
0
  6
CONTINUOUS
 10
281.396000
 20
44.747000
  0
VERTEX
  8
0
  6
CONTINUOUS
 10
291.896000
 20
44.747000
  0
VERTEX
  8
0
  6
CONTINUOUS
 10
291.896000
 20
29.897000
  0
VERTEX
  8
0
  6
CONTINUOUS
 10
281.396000
 20
29.897000
  0
SEQEND
  8
0
  0
TEXT
  8
0
  6
CONTINUOUS
 40
0.300000
 10
283.926000
 20
42.381000
  1
TIPUS   T311A
  7
ROMANC
  0
ARC
  8
1
  6
CONTINUOUS
 10
286.833000
 20
32.194000
 40
2.125000
 50
421.927511
 51
478.072486
  0
TEXT
  8
0
  6
CONTINUOUS
 40
0.300000
 10
283.922000
 20
40.529000
  1
P = 70 dm
  7
ROMANC
  0
TEXT
  8
0
  6
CONTINUOUS
 40
0.300000
 10
283.945000
 20
41.099000
  1
S = 311 dm
  7
ROMANC
  0
LINE
  8
1
  6
CONTINUOUS
 10
285.833000
 20
32.869000
 11
286.333000
 21
32.869000
  0
LINE
  8
1
  6
CONTINUOUS
 10
286.333000
 20
32.869000
 11
286.333000
 21
32.619000
  0
LINE
  8
1
  6
CONTINUOUS
 10
287.833000
 20
32.619000
 11
287.833000
 21
34.069000
  0
TEXT
  8
1
  6
CONTINUOUS
 40
0.075000
 10
285.964000
 20
32.426000
  1
0.50
  7
ROMANC
  0
LINE
  8
1
  6
CONTINUOUS
 10
285.683000
 20
32.464000
 11
285.833000
 21
32.464000
  0
LINE
  8
1
  6
CONTINUOUS
 10
286.483000
 20
32.464000
 11
286.333000
 21
32.464000
  0
LINE
  8
1
  6
CONTINUOUS
 10
285.870000
 20
32.483000
 11
285.796000
 21
32.445000
  0
LINE
  8
1
  6
CONTINUOUS
 10
286.296000
 20
32.445000
 11
286.370000
 21
32.483000
  0
LINE
  8
1
  6
CONTINUOUS
 10
285.833000
 20
32.831000
 11
285.833000
 21
32.426000
  0
LINE
  8
1
  6
CONTINUOUS
 10
286.333000
 20
32.581000
 11
286.333000
 21
32.426000
  0
TEXT
  8
1
  6
CONTINUOUS
 40
0.075000
 10
286.973000
 20
32.426000
  1
1.50
  7
ROMANC
  0
LINE
  8
1
  6
CONTINUOUS
 10
286.935000
 20
32.464000
 11
286.333000
 21
32.464000
  0
LINE
  8
1
  6
CONTINUOUS
 10
287.230000
 20
32.464000
 11
287.833000
 21
32.464000
  0
LINE
  8
1
  6
CONTINUOUS
 10
286.296000
 20
32.445000
 11
286.370000
 21
32.483000
  0
LINE
  8
1
  6
CONTINUOUS
 10
287.870000
 20
32.483000
 11
287.796000
 21
32.445000
  0
LINE
  8
1
  6
CONTINUOUS
 10
287.833000
 20
32.581000
 11
287.833000
 21
32.426000
  0
LINE
  8
1
  6
CONTINUOUS
 10
286.333000
 20
32.619000
 11
287.833000
 21
32.619000
  0
TEXT
  8
1
  6
CONTINUOUS
 40
0.075000
 10
286.714000
 20
32.240000
  1
2.00
  7
ROMANC
  0
LINE
  8
1
  6
CONTINUOUS
 10
286.676000
 20
32.277000
 11
285.833000
 21
32.277000
  0
LINE
  8
1
  6
CONTINUOUS
 10
286.988000
 20
32.277000
 11
287.833000
 21
32.277000
  0
LINE
  8
1
  6
CONTINUOUS
 10
285.796000
 20
32.258000
 11
285.870000
 21
32.296000
  0
LINE
  8
1
  6
CONTINUOUS
 10
287.870000
 20
32.296000
 11
287.796000
 21
32.258000
  0
LINE
  8
1
  6
CONTINUOUS
 10
285.833000
 20
32.831000
 11
285.833000
 21
32.239000
  0
LINE
  8
1
  6
CONTINUOUS
 10
287.833000
 20
32.581000
 11
287.833000
 21
32.239000
  0
TEXT
  8
1
  6
CONTINUOUS
 40
0.075000
 10
288.018000
 20
33.231000
  1
1.45
 50
90.000000
  7
ROMANC
  0
LINE
  8
1
  6
CONTINUOUS
 10
287.980000
 20
33.193000
 11
287.980000
 21
32.619000
  0
LINE
  8
1
  6
CONTINUOUS
 10
287.980000
 20
33.495000
 11
287.980000
 21
34.069000
  0
LINE
  8
1
  6
CONTINUOUS
 10
287.999000
 20
32.582000
 11
287.961000
 21
32.656000
  0
LINE
  8
1
  6
CONTINUOUS
 10
287.961000
 20
34.106000
 11
287.999000
 21
34.032000
  0
LINE
  8
1
  6
CONTINUOUS
 10
287.871000
 20
32.619000
 11
288.018000
 21
32.619000
  0
LINE
  8
1
  6
CONTINUOUS
 10
287.871000
 20
34.069000
 11
288.018000
 21
34.069000
  0
TEXT
  8
1
  6
CONTINUOUS
 40
0.075000
 10
288.130000
 20
33.645000
  1
0.25
 50
90.000000
  7
ROMANC
  0
LINE
  8
1
  6
CONTINUOUS
 10
288.093000
 20
33.995000
 11
288.093000
 21
34.069000
  0
LINE
  8
1
  6
CONTINUOUS
 10
288.093000
 20
34.469000
 11
288.093000
 21
34.319000
  0
LINE
  8
1
  6
CONTINUOUS
 10
288.074000
 20
34.106000
 11
288.112000
 21
34.032000
  0
LINE
  8
1
  6
CONTINUOUS
 10
288.112000
 20
34.282000
 11
288.074000
 21
34.356000
  0
LINE
  8
1
  6
CONTINUOUS
 10
286.871000
 20
34.319000
 11
288.131000
 21
34.319000
  0
LINE
  8
1
  6
CONTINUOUS
 10
288.018000
 20
34.069000
 11
288.131000
 21
34.069000
  0
TEXT
  8
1
  6
CONTINUOUS
 40
0.075000
 10
288.250000
 20
33.359000
  1
1.70
 50
90.000000
  7
ROMANC
  0
LINE
  8
1
  6
CONTINUOUS
 10
288.213000
 20
33.321000
 11
288.213000
 21
32.619000
  0
LINE
  8
1
  6
CONTINUOUS
 10
288.213000
 20
33.616000
 11
288.213000
 21
34.319000
  0
LINE
  8
1
  6
CONTINUOUS
 10
288.232000
 20
32.582000
 11
288.194000
 21
32.656000
  0
LINE
  8
1
  6
CONTINUOUS
 10
288.194000
 20
34.356000
 11
288.232000
 21
34.282000
  0
LINE
  8
1
  6
CONTINUOUS
 10
287.871000
 20
32.619000
 11
288.251000
 21
32.619000
  0
LINE
  8
1
  6
CONTINUOUS
 10
286.871000
 20
34.319000
 11
288.251000
 21
34.319000
  0
LINE
  8
1
  6
CONTINUOUS
 10
285.833000
 20
34.069000
 11
285.833000
 21
32.869000
  0
TEXT
  8
1
  6
CONTINUOUS
 40
0.075000
 10
285.606000
 20
33.359000
  1
1.20
 50
90.000000
  7
ROMANC
  0
LINE
  8
1
  6
CONTINUOUS
 10
285.569000
 20
33.321000
 11
285.569000
 21
32.869000
  0
LINE
  8
1
  6
CONTINUOUS
 10
285.569000
 20
33.616000
 11
285.569000
 21
34.069000
  0
LINE
  8
1
  6
CONTINUOUS
 10
285.588000
 20
32.832000
 11
285.550000
 21
32.906000
  0
LINE
  8
1
  6
CONTINUOUS
 10
285.550000
 20
34.106000
 11
285.588000
 21
34.032000
  0
LINE
  8
1
  6
CONTINUOUS
 10
285.795000
 20
32.869000
 11
285.531000
 21
32.869000
  0
LINE
  8
1
  6
CONTINUOUS
 10
285.795000
 20
34.069000
 11
285.531000
 21
34.069000
  0
TEXT
  8
1
  6
CONTINUOUS
 40
0.075000
 10
285.700000
 20
33.010000
  1
0.25
 50
90.000000
  7
ROMANC
  0
LINE
  8
1
  6
CONTINUOUS
 10
285.663000
 20
32.469000
 11
285.663000
 21
32.619000
  0
LINE
  8
1
  6
CONTINUOUS
 10
285.663000
 20
32.972000
 11
285.663000
 21
32.869000
  0
LINE
  8
1
  6
CONTINUOUS
 10
285.644000
 20
32.656000
 11
285.682000
 21
32.582000
  0
LINE
  8
1
  6
CONTINUOUS
 10
285.682000
 20
32.832000
 11
285.644000
 21
32.906000
  0
LINE
  8
1
  6
CONTINUOUS
 10
285.964000
 20
32.619000
 11
285.625000
 21
32.619000
  0
LINE
  8
1
  6
CONTINUOUS
 10
285.795000
 20
32.869000
 11
285.625000
 21
32.869000
  0
LINE
  8
1
  6
CONTINUOUS
 10
285.823000
 20
34.075000
 11
285.823000
 21
32.859000
  0
LINE
  8
1
  6
CONTINUOUS
 10
285.813000
 20
34.081000
 11
285.813000
 21
32.849000
  0
LINE
  8
1
  6
CONTINUOUS
 10
285.823000
 20
32.859000
 11
286.323000
 21
32.859000
  0
LINE
  8
1
  6
CONTINUOUS
 10
285.813000
 20
32.849000
 11
286.313000
 21
32.849000
  0
LINE
  8
1
  6
CONTINUOUS
 10
286.323000
 20
32.859000
 11
286.323000
 21
32.609000
  0
LINE
  8
1
  6
CONTINUOUS
 10
286.313000
 20
32.849000
 11
286.313000
 21
32.599000
  0
LINE
  8
1
  6
CONTINUOUS
 10
286.323000
 20
32.609000
 11
287.843000
 21
32.609000
  0
LINE
  8
1
  6
CONTINUOUS
 10
286.313000
 20
32.599000
 11
287.853000
 21
32.599000
  0
LINE
  8
1
  6
CONTINUOUS
 10
287.843000
 20
32.609000
 11
287.843000
 21
34.075000
  0
LINE
  8
1
  6
CONTINUOUS
 10
287.853000
 20
32.599000
 11
287.853000
 21
34.081000
  0
ARC
  8
1
  6
CONTINUOUS
 10
286.833000
 20
32.194000
 40
2.135000
 50
421.766372
 51
478.233628
  0
ARC
  8
1
  6
CONTINUOUS
 10
286.833000
 20
32.194000
 40
2.145000
 50
421.606497
 51
478.393503
  0
ENDSEC
  0
EOF
