  0
SECTION
  2
HEADER
  9
$ACADVER
  1
AC1009
  9
$INSBASE
 10
0.0
 20
0.0
 30
0.0
  9
$EXTMIN
 10
281.396000
 20
29.897000
 30
-2147483.648000
  9
$EXTMAX
 10
291.896000
 20
44.747000
 30
0.000000
  9
$LIMMIN
 10
280.396000
 20
28.897000
  9
$LIMMAX
 10
292.896000
 20
43.747000
  9
$ORTHOMODE
 70
     0
  9
$REGENMODE
 70
     1
  9
$FILLMODE
 70
     1
  9
$QTEXTMODE
 70
     0
  9
$MIRRTEXT
 70
     1
  9
$DRAGMODE
 70
     2
  9
$LTSCALE
 40
1.0
  9
$OSMODE
 70
     0
  9
$ATTMODE
 70
     1
  9
$TEXTSIZE
 40
0.2
  9
$TRACEWID
 40
0.05
  9
$TEXTSTYLE
  7
STANDARD
  9
$CLAYER
  8
0
  9
$CELTYPE
  6
BYLAYER
  9
$CECOLOR
 62
   256
  9
$DIMSCALE
 40
1.0
  9
$DIMASZ
 40
0.18
  9
$DIMEXO
 40
0.0625
  9
$DIMDLI
 40
0.38
  9
$DIMRND
 40
0.0
  9
$DIMDLE
 40
0.0
  9
$DIMEXE
 40
0.18
  9
$DIMTP
 40
0.0
  9
$DIMTM
 40
0.0
  9
$DIMTXT
 40
0.18
  9
$DIMCEN
 40
0.09
  9
$DIMTSZ
 40
0.0
  9
$DIMTOL
 70
     0
  9
$DIMLIM
 70
     0
  9
$DIMTIH
 70
     1
  9
$DIMTOH
 70
     1
  9
$DIMSE1
 70
     0
  9
$DIMSE2
 70
     0
  9
$DIMTAD
 70
     0
  9
$DIMZIN
 70
     0
  9
$DIMBLK
  1

  9
$DIMASO
 70
     1
  9
$DIMSHO
 70
     1
  9
$DIMPOST
  1

  9
$DIMAPOST
  1

  9
$DIMALT
 70
     0
  9
$DIMALTD
 70
     2
  9
$DIMALTF
 40
25.4
  9
$DIMLFAC
 40
1.0
  9
$DIMTOFL
 70
     0
  9
$DIMTVP
 40
0.0
  9
$DIMTIX
 70
     0
  9
$DIMSOXD
 70
     0
  9
$DIMSAH
 70
     0
  9
$DIMBLK1
  1

  9
$DIMBLK2
  1

  9
$DIMSTYLE
  2
*UNNAMED
  9
$DIMCLRD
 70
     0
  9
$DIMCLRE
 70
     0
  9
$DIMCLRT
 70
     0
  9
$DIMTFAC
 40
1.0
  9
$DIMGAP
 40
0.09
  9
$LUNITS
 70
     2
  9
$LUPREC
 70
     4
  9
$AXISMODE
 70
     0
  9
$AXISUNIT
 10
0.0
 20
0.0
  9
$SKETCHINC
 40
0.1
  9
$FILLETRAD
 40
0.0
  9
$AUNITS
 70
     0
  9
$AUPREC
 70
     0
  9
$MENU
  1
acad
  9
$ELEVATION
 40
0.0
  9
$PELEVATION
 40
0.0
  9
$THICKNESS
 40
0.0
  9
$LIMCHECK
 70
     0
  9
$BLIPMODE
 70
     1
  9
$CHAMFERA
 40
0.0
  9
$CHAMFERB
 40
0.0
  9
$SKPOLY
 70
     0
  9
$TDCREATE
 40
2448315.373408102
  9
$TDUPDATE
 40
2448315.373408102
  9
$TDINDWG
 40
0.0000000000
  9
$TDUSRTIMER
 40
0.0000000000
  9
$USRTIMER
 70
     1
  9
$ANGBASE
 50
0.0
  9
$ANGDIR
 70
     0
  9
$PDMODE
 70
     0
  9
$PDSIZE
 40
0.0
  9
$PLINEWID
 40
0.0
  9
$COORDS
 70
     0
  9
$SPLFRAME
 70
     0
  9
$SPLINETYPE
 70
     6
  9
$SPLINESEGS
 70
     8
  9
$ATTDIA
 70
     0
  9
$ATTREQ
 70
     1
  9
$HANDLING
 70
     0
  9
$HANDSEED
  5
0
  9
$SURFTAB1
 70
     6
  9
$SURFTAB2
 70
     6
  9
$SURFTYPE
 70
     6
  9
$SURFU
 70
     6
  9
$SURFV
 70
     6
  9
$UCSNAME
  2

  9
$UCSORG
 10
0.0
 20
0.0
 30
0.0
  9
$UCSXDIR
 10
1.0
 20
0.0
 30
0.0
  9
$UCSYDIR
 10
0.0
 20
1.0
 30
0.0
  9
$PUCSNAME
  2

  9
$PUCSORG
 10
0.0
 20
0.0
 30
0.0
  9
$PUCSXDIR
 10
1.0
 20
0.0
 30
0.0
  9
$PUCSYDIR
 10
0.0
 20
1.0
 30
0.0
  9
$USERI1
 70
     0
  9
$USERI2
 70
     0
  9
$USERI3
 70
     0
  9
$USERI4
 70
     0
  9
$USERI5
 70
     0
  9
$USERR1
 40
0.0
  9
$USERR2
 40
0.0
  9
$USERR3
 40
0.0
  9
$USERR4
 40
0.0
  9
$USERR5
 40
0.0
  9
$WORLDVIEW
 70
     1
  9
$SHADEDGE
 70
     3
  9
$SHADEDIF
 70
    70
  9
$TILEMODE
 70
     1
  9
$MAXACTVP
 70
    16
  9
$PINSBASE
 10
0.0
 20
0.0
 30
0.0
  9
$PLIMCHECK
 70
     0
  9
$PEXTMIN
 10
1.000000E+20
 20
1.000000E+20
 30
1.000000E+20
  9
$PEXTMAX
 10
-1.000000E+20
 20
-1.000000E+20
 30
-1.000000E+20
  9
$PLIMMIN
 10
0.0
 20
0.0
  9
$PLIMMAX
 10
12.0
 20
9.0
  9
$UNITMODE
 70
     0
  9
$VISRETAIN
 70
     0
  0
ENDSEC
  0
SECTION
  2
TABLES
  0
TABLE
  2
LTYPE
 70
    1
  0
LTYPE
  2
CONTINUOUS
 70
    64
3
Solid line
 72
    65
 73
0
 40
0.000000
  0
ENDTAB
  0
TABLE
  2
LAYER
 70
    8
  0
LAYER
  2
0
 70
    64
 62
7
  6
CONTINUOUS
  0
LAYER
  2
1
 70
    64
 62
7
  6
CONTINUOUS
  0
LAYER
  2
7
 70
    64
 62
7
  6
CONTINUOUS
  0
LAYER
  2
8
 70
    64
 62
7
  6
CONTINUOUS
  0
LAYER
  2
9
 70
    64
 62
7
  6
CONTINUOUS
  0
LAYER
  2
22
 70
    64
 62
7
  6
CONTINUOUS
  0
LAYER
  2
25
 70
    64
 62
7
  6
CONTINUOUS
  0
LAYER
  2
0
 70
    64
 62
7
  6
CONTINUOUS
  0
ENDTAB
  0
TABLE
  2
STYLE
 70
    1
  0
STYLE
  2
ROMANC
70
     0
 40
0.0
 41
1.0
 50
0.0
 71
     0
 42
0.2
  3
ROMANC
  4

  0
ENDTAB
  0
ENDSEC
  0
SECTION
  2
BLOCKS
  0
ENDSEC
  0
SECTION
  2
ENTITIES
  0
TEXT
  8
0
  6
CONTINUOUS
 40
0.100000
 10
286.909000
 20
41.324000
  1
2
  7
ROMANC
  0
TEXT
  8
0
  6
CONTINUOUS
 40
0.300000
 10
283.926000
 20
41.768000
  1
ESCALA  1:50
  7
ROMANC
  0
POLYLINE
  8
0
  6
CONTINUOUS
 66
     1
 70
     1
  0
VERTEX
  8
0
  6
CONTINUOUS
 10
281.396000
 20
44.747000
  0
VERTEX
  8
0
  6
CONTINUOUS
 10
291.896000
 20
44.747000
  0
VERTEX
  8
0
  6
CONTINUOUS
 10
291.896000
 20
29.897000
  0
VERTEX
  8
0
  6
CONTINUOUS
 10
281.396000
 20
29.897000
  0
SEQEND
  8
0
  0
TEXT
  8
0
  6
CONTINUOUS
 40
0.300000
 10
283.926000
 20
42.381000
  1
TIPUS   T302
  7
ROMANC
  0
ARC
  8
1
  6
CONTINUOUS
 10
286.568000
 20
33.141000
 40
0.950000
 50
0.000000
 51
180.000000
  0
LINE
  8
1
  6
CONTINUOUS
 10
286.268000
 20
32.671000
 11
286.468000
 21
32.551000
  0
TEXT
  8
0
  6
CONTINUOUS
 40
0.300000
 10
283.922000
 20
40.529000
  1
P = 84 dm
  7
ROMANC
  0
TEXT
  8
0
  6
CONTINUOUS
 40
0.300000
 10
283.945000
 20
41.099000
  1
S = 302 dm
  7
ROMANC
  0
ARC
  8
1
  6
CONTINUOUS
 10
285.718720
 20
32.291720
 40
0.100722
 50
179.590678
 51
270.409322
  0
LINE
  8
1
  6
CONTINUOUS
 10
285.618000
 20
32.292000
 11
285.618000
 21
33.141000
  0
LINE
  8
1
  6
CONTINUOUS
 10
286.468000
 20
32.551000
 11
286.468000
 21
32.291000
  0
TEXT
  8
1
  6
CONTINUOUS
 40
0.075000
 10
285.924000
 20
31.954000
  1
0.85
  7
ROMANC
  0
LINE
  8
1
  6
CONTINUOUS
 10
285.886000
 20
31.992000
 11
285.618000
 21
31.992000
  0
LINE
  8
1
  6
CONTINUOUS
 10
286.198000
 20
31.992000
 11
286.468000
 21
31.992000
  0
LINE
  8
1
  6
CONTINUOUS
 10
285.580000
 20
31.973000
 11
285.656000
 21
32.011000
  0
LINE
  8
1
  6
CONTINUOUS
 10
286.506000
 20
32.011000
 11
286.430000
 21
31.973000
  0
LINE
  8
1
  6
CONTINUOUS
 10
285.618000
 20
32.254000
 11
285.618000
 21
31.954000
  0
LINE
  8
1
  6
CONTINUOUS
 10
286.468000
 20
32.253000
 11
286.468000
 21
31.954000
  0
ARC
  8
1
  6
CONTINUOUS
 10
286.367280
 20
32.291720
 40
0.100722
 50
629.590678
 51
719.590678
  0
ARC
  8
1
  6
CONTINUOUS
 10
286.768720
 20
32.291720
 40
0.100722
 50
180.409322
 51
270.409322
  0
TEXT
  8
1
  6
CONTINUOUS
 40
0.075000
 10
286.044000
 20
31.828000
  1
0.20
  7
ROMANC
  0
LINE
  8
1
  6
CONTINUOUS
 10
286.394000
 20
31.865000
 11
286.468000
 21
31.865000
  0
LINE
  8
1
  6
CONTINUOUS
 10
286.818000
 20
31.865000
 11
286.668000
 21
31.865000
  0
LINE
  8
1
  6
CONTINUOUS
 10
286.506000
 20
31.884000
 11
286.430000
 21
31.846000
  0
LINE
  8
1
  6
CONTINUOUS
 10
286.630000
 20
31.846000
 11
286.706000
 21
31.884000
  0
LINE
  8
1
  6
CONTINUOUS
 10
286.468000
 20
32.253000
 11
286.468000
 21
31.827000
  0
LINE
  8
1
  6
CONTINUOUS
 10
286.668000
 20
32.253000
 11
286.668000
 21
31.827000
  0
LINE
  8
1
  6
CONTINUOUS
 10
286.668000
 20
32.291000
 11
286.668000
 21
32.551000
  0
LINE
  8
1
  6
CONTINUOUS
 10
287.518000
 20
33.141000
 11
287.518000
 21
32.291000
  0
TEXT
  8
1
  6
CONTINUOUS
 40
0.075000
 10
286.974000
 20
31.954000
  1
0.85
  7
ROMANC
  0
LINE
  8
1
  6
CONTINUOUS
 10
286.936000
 20
31.992000
 11
286.668000
 21
31.992000
  0
LINE
  8
1
  6
CONTINUOUS
 10
287.248000
 20
31.992000
 11
287.518000
 21
31.992000
  0
LINE
  8
1
  6
CONTINUOUS
 10
286.630000
 20
31.973000
 11
286.706000
 21
32.011000
  0
LINE
  8
1
  6
CONTINUOUS
 10
287.556000
 20
32.011000
 11
287.480000
 21
31.973000
  0
LINE
  8
1
  6
CONTINUOUS
 10
286.668000
 20
32.253000
 11
286.668000
 21
31.954000
  0
LINE
  8
1
  6
CONTINUOUS
 10
287.518000
 20
32.253000
 11
287.518000
 21
31.954000
  0
TEXT
  8
1
  6
CONTINUOUS
 40
0.075000
 10
286.458000
 20
31.650000
  1
1.90
  7
ROMANC
  0
LINE
  8
1
  6
CONTINUOUS
 10
286.420000
 20
31.687000
 11
285.618000
 21
31.687000
  0
LINE
  8
1
  6
CONTINUOUS
 10
286.715000
 20
31.687000
 11
287.518000
 21
31.687000
  0
LINE
  8
1
  6
CONTINUOUS
 10
285.580000
 20
31.668000
 11
285.656000
 21
31.706000
  0
LINE
  8
1
  6
CONTINUOUS
 10
287.556000
 20
31.706000
 11
287.480000
 21
31.668000
  0
LINE
  8
1
  6
CONTINUOUS
 10
285.618000
 20
32.254000
 11
285.618000
 21
31.649000
  0
LINE
  8
1
  6
CONTINUOUS
 10
287.518000
 20
32.253000
 11
287.518000
 21
31.649000
  0
ARC
  8
1
  6
CONTINUOUS
 10
287.417280
 20
32.291720
 40
0.100722
 50
629.590678
 51
719.590678
  0
TEXT
  8
1
  6
CONTINUOUS
 40
0.075000
 10
287.744000
 20
32.547000
  1
0.95
 50
90.000000
  7
ROMANC
  0
LINE
  8
1
  6
CONTINUOUS
 10
287.706000
 20
32.509000
 11
287.706000
 21
32.191000
  0
LINE
  8
1
  6
CONTINUOUS
 10
287.706000
 20
32.821000
 11
287.706000
 21
33.141000
  0
LINE
  8
1
  6
CONTINUOUS
 10
287.725000
 20
32.154000
 11
287.687000
 21
32.228000
  0
LINE
  8
1
  6
CONTINUOUS
 10
287.687000
 20
33.178000
 11
287.725000
 21
33.104000
  0
LINE
  8
1
  6
CONTINUOUS
 10
287.455000
 20
32.191000
 11
287.744000
 21
32.191000
  0
LINE
  8
1
  6
CONTINUOUS
 10
287.556000
 20
33.141000
 11
287.744000
 21
33.141000
  0
TEXT
  8
1
  6
CONTINUOUS
 40
0.075000
 10
287.744000
 20
33.497000
  1
0.95
 50
90.000000
  7
ROMANC
  0
LINE
  8
1
  6
CONTINUOUS
 10
287.706000
 20
33.459000
 11
287.706000
 21
33.141000
  0
LINE
  8
1
  6
CONTINUOUS
 10
287.706000
 20
33.771000
 11
287.706000
 21
34.091000
  0
LINE
  8
1
  6
CONTINUOUS
 10
287.725000
 20
33.104000
 11
287.687000
 21
33.178000
  0
LINE
  8
1
  6
CONTINUOUS
 10
287.687000
 20
34.128000
 11
287.725000
 21
34.054000
  0
LINE
  8
1
  6
CONTINUOUS
 10
286.606000
 20
34.091000
 11
287.744000
 21
34.091000
  0
LINE
  8
1
  6
CONTINUOUS
 10
287.417000
 20
32.191000
 11
286.769000
 21
32.191000
  0
TEXT
  8
1
  6
CONTINUOUS
 40
0.075000
 10
287.928000
 20
33.031000
  1
1.90
 50
90.000000
  7
ROMANC
  0
LINE
  8
1
  6
CONTINUOUS
 10
287.891000
 20
32.993000
 11
287.891000
 21
32.191000
  0
LINE
  8
1
  6
CONTINUOUS
 10
287.891000
 20
33.288000
 11
287.891000
 21
34.091000
  0
LINE
  8
1
  6
CONTINUOUS
 10
287.910000
 20
32.154000
 11
287.872000
 21
32.228000
  0
LINE
  8
1
  6
CONTINUOUS
 10
287.872000
 20
34.128000
 11
287.910000
 21
34.054000
  0
LINE
  8
1
  6
CONTINUOUS
 10
287.455000
 20
32.191000
 11
287.929000
 21
32.191000
  0
LINE
  8
1
  6
CONTINUOUS
 10
286.606000
 20
34.091000
 11
287.929000
 21
34.091000
  0
LINE
  8
1
  6
CONTINUOUS
 10
286.868000
 20
32.791000
 11
286.268000
 21
32.791000
  0
TEXT
  8
1
  6
CONTINUOUS
 40
0.075000
 10
286.449000
 20
32.876000
  1
0.60
  7
ROMANC
  0
LINE
  8
1
  6
CONTINUOUS
 10
286.118000
 20
32.914000
 11
286.268000
 21
32.914000
  0
LINE
  8
1
  6
CONTINUOUS
 10
287.018000
 20
32.914000
 11
286.868000
 21
32.914000
  0
LINE
  8
1
  6
CONTINUOUS
 10
286.306000
 20
32.933000
 11
286.230000
 21
32.895000
  0
LINE
  8
1
  6
CONTINUOUS
 10
286.830000
 20
32.895000
 11
286.906000
 21
32.933000
  0
LINE
  8
1
  6
CONTINUOUS
 10
286.268000
 20
32.829000
 11
286.268000
 21
32.952000
  0
LINE
  8
1
  6
CONTINUOUS
 10
286.868000
 20
32.829000
 11
286.868000
 21
32.952000
  0
LINE
  8
1
  6
CONTINUOUS
 10
286.668000
 20
32.551000
 11
286.868000
 21
32.671000
  0
LINE
  8
1
  6
CONTINUOUS
 10
286.868000
 20
32.671000
 11
286.868000
 21
32.791000
  0
TEXT
  8
1
  6
CONTINUOUS
 40
0.075000
 10
287.038000
 20
33.060000
  1
0.12
 50
90.000000
  7
ROMANC
  0
LINE
  8
1
  6
CONTINUOUS
 10
287.001000
 20
32.521000
 11
287.001000
 21
32.671000
  0
LINE
  8
1
  6
CONTINUOUS
 10
287.001000
 20
33.022000
 11
287.001000
 21
32.791000
  0
LINE
  8
1
  6
CONTINUOUS
 10
286.982000
 20
32.708000
 11
287.020000
 21
32.634000
  0
LINE
  8
1
  6
CONTINUOUS
 10
287.020000
 20
32.754000
 11
286.982000
 21
32.828000
  0
LINE
  8
1
  6
CONTINUOUS
 10
286.906000
 20
32.671000
 11
287.039000
 21
32.671000
  0
LINE
  8
1
  6
CONTINUOUS
 10
286.906000
 20
32.791000
 11
287.039000
 21
32.791000
  0
LINE
  8
1
  6
CONTINUOUS
 10
286.367000
 20
32.191000
 11
285.719000
 21
32.191000
  0
LINE
  8
1
  6
CONTINUOUS
 10
286.268000
 20
32.791000
 11
286.268000
 21
32.671000
  0
TEXT
  8
1
  6
CONTINUOUS
 40
0.075000
 10
286.080000
 20
32.372000
  1
0.60
 50
90.000000
  7
ROMANC
  0
LINE
  8
1
  6
CONTINUOUS
 10
286.042000
 20
32.041000
 11
286.042000
 21
32.191000
  0
LINE
  8
1
  6
CONTINUOUS
 10
286.042000
 20
32.941000
 11
286.042000
 21
32.791000
  0
LINE
  8
1
  6
CONTINUOUS
 10
286.023000
 20
32.228000
 11
286.061000
 21
32.154000
  0
LINE
  8
1
  6
CONTINUOUS
 10
286.061000
 20
32.754000
 11
286.023000
 21
32.828000
  0
LINE
  8
1
  6
CONTINUOUS
 10
286.329000
 20
32.191000
 11
286.004000
 21
32.191000
  0
LINE
  8
1
  6
CONTINUOUS
 10
286.230000
 20
32.791000
 11
286.004000
 21
32.791000
  0
TEXT
  8
1
  6
CONTINUOUS
 40
0.075000
 10
286.304000
 20
32.245000
  1
0.35
 50
90.000000
  7
ROMANC
  0
LINE
  8
1
  6
CONTINUOUS
 10
286.267000
 20
32.041000
 11
286.267000
 21
32.191000
  0
LINE
  8
1
  6
CONTINUOUS
 10
286.267000
 20
32.690000
 11
286.267000
 21
32.540000
  0
LINE
  8
1
  6
CONTINUOUS
 10
286.248000
 20
32.228000
 11
286.286000
 21
32.154000
  0
LINE
  8
1
  6
CONTINUOUS
 10
286.286000
 20
32.502000
 11
286.248000
 21
32.578000
  0
LINE
  8
1
  6
CONTINUOUS
 10
286.329000
 20
32.191000
 11
286.229000
 21
32.191000
  0
LINE
  8
1
  6
CONTINUOUS
 10
286.265000
 20
32.540000
 11
286.229000
 21
32.540000
  0
LINE
  8
1
  6
CONTINUOUS
 10
286.858000
 20
32.781000
 11
286.278000
 21
32.781000
  0
LINE
  8
1
  6
CONTINUOUS
 10
286.848000
 20
32.771000
 11
286.288000
 21
32.771000
  0
LINE
  8
1
  6
CONTINUOUS
 10
286.278000
 20
32.781000
 11
286.278000
 21
32.676000
  0
LINE
  8
1
  6
CONTINUOUS
 10
286.288000
 20
32.771000
 11
286.288000
 21
32.682000
  0
LINE
  8
1
  6
CONTINUOUS
 10
286.278000
 20
32.676000
 11
286.478000
 21
32.556000
  0
LINE
  8
1
  6
CONTINUOUS
 10
286.288000
 20
32.682000
 11
286.488000
 21
32.562000
  0
LINE
  8
1
  6
CONTINUOUS
 10
286.658000
 20
32.557000
 11
286.858000
 21
32.677000
  0
LINE
  8
1
  6
CONTINUOUS
 10
286.648000
 20
32.563000
 11
286.848000
 21
32.683000
  0
LINE
  8
1
  6
CONTINUOUS
 10
286.858000
 20
32.677000
 11
286.858000
 21
32.781000
  0
LINE
  8
1
  6
CONTINUOUS
 10
286.848000
 20
32.683000
 11
286.848000
 21
32.771000
  0
LINE
  8
1
  6
CONTINUOUS
 10
286.658000
 20
32.291000
 11
286.658000
 21
32.557000
  0
LINE
  8
1
  6
CONTINUOUS
 10
286.648000
 20
32.291000
 11
286.648000
 21
32.563000
  0
LINE
  8
1
  6
CONTINUOUS
 10
286.478000
 20
32.556000
 11
286.478000
 21
32.291000
  0
LINE
  8
1
  6
CONTINUOUS
 10
286.488000
 20
32.562000
 11
286.488000
 21
32.291000
  0
ARC
  8
1
  6
CONTINUOUS
 10
286.367280
 20
32.291720
 40
0.110722
 50
629.590678
 51
719.590678
  0
ARC
  8
1
  6
CONTINUOUS
 10
286.367280
 20
32.291720
 40
0.120722
 50
629.590678
 51
719.590678
  0
ARC
  8
1
  6
CONTINUOUS
 10
286.768720
 20
32.291720
 40
0.110722
 50
180.409322
 51
270.409322
  0
ARC
  8
1
  6
CONTINUOUS
 10
286.768720
 20
32.291720
 40
0.120722
 50
180.409322
 51
270.409322
  0
LINE
  8
1
  6
CONTINUOUS
 10
287.417000
 20
32.181000
 11
286.769000
 21
32.181000
  0
LINE
  8
1
  6
CONTINUOUS
 10
287.417000
 20
32.171000
 11
286.769000
 21
32.171000
  0
ARC
  8
1
  6
CONTINUOUS
 10
287.417280
 20
32.291720
 40
0.110722
 50
629.590678
 51
719.590678
  0
ARC
  8
1
  6
CONTINUOUS
 10
287.417280
 20
32.291720
 40
0.120722
 50
629.590678
 51
719.590678
  0
LINE
  8
1
  6
CONTINUOUS
 10
287.528000
 20
33.141000
 11
287.528000
 21
32.291000
  0
LINE
  8
1
  6
CONTINUOUS
 10
287.538000
 20
33.141000
 11
287.538000
 21
32.291000
  0
ARC
  8
1
  6
CONTINUOUS
 10
286.568000
 20
33.141000
 40
0.960000
 50
0.000000
 51
180.000000
  0
ARC
  8
1
  6
CONTINUOUS
 10
286.568000
 20
33.141000
 40
0.970000
 50
0.000000
 51
180.000000
  0
LINE
  8
1
  6
CONTINUOUS
 10
285.608000
 20
32.292000
 11
285.608000
 21
33.141000
  0
LINE
  8
1
  6
CONTINUOUS
 10
285.598000
 20
32.292000
 11
285.598000
 21
33.141000
  0
ARC
  8
1
  6
CONTINUOUS
 10
285.718720
 20
32.291720
 40
0.110722
 50
179.590678
 51
270.409322
  0
ARC
  8
1
  6
CONTINUOUS
 10
285.718720
 20
32.291720
 40
0.120722
 50
179.590678
 51
270.409322
  0
LINE
  8
1
  6
CONTINUOUS
 10
286.367000
 20
32.181000
 11
285.719000
 21
32.181000
  0
LINE
  8
1
  6
CONTINUOUS
 10
286.367000
 20
32.171000
 11
285.719000
 21
32.171000
  0
ENDSEC
  0
EOF
