  0
SECTION
  2
HEADER
  9
$ACADVER
  1
AC1009
  9
$INSBASE
 10
0.0
 20
0.0
 30
0.0
  9
$EXTMIN
 10
281.396000
 20
29.897000
 30
-2147483.648000
  9
$EXTMAX
 10
283.496000
 20
32.867000
 30
0.000000
  9
$LIMMIN
 10
280.396000
 20
28.897000
  9
$LIMMAX
 10
284.496000
 20
31.867000
  9
$ORTHOMODE
 70
     0
  9
$REGENMODE
 70
     1
  9
$FILLMODE
 70
     1
  9
$QTEXTMODE
 70
     0
  9
$MIRRTEXT
 70
     1
  9
$DRAGMODE
 70
     2
  9
$LTSCALE
 40
1.0
  9
$OSMODE
 70
     0
  9
$ATTMODE
 70
     1
  9
$TEXTSIZE
 40
0.2
  9
$TRACEWID
 40
0.05
  9
$TEXTSTYLE
  7
STANDARD
  9
$CLAYER
  8
0
  9
$CELTYPE
  6
BYLAYER
  9
$CECOLOR
 62
   256
  9
$DIMSCALE
 40
1.0
  9
$DIMASZ
 40
0.18
  9
$DIMEXO
 40
0.0625
  9
$DIMDLI
 40
0.38
  9
$DIMRND
 40
0.0
  9
$DIMDLE
 40
0.0
  9
$DIMEXE
 40
0.18
  9
$DIMTP
 40
0.0
  9
$DIMTM
 40
0.0
  9
$DIMTXT
 40
0.18
  9
$DIMCEN
 40
0.09
  9
$DIMTSZ
 40
0.0
  9
$DIMTOL
 70
     0
  9
$DIMLIM
 70
     0
  9
$DIMTIH
 70
     1
  9
$DIMTOH
 70
     1
  9
$DIMSE1
 70
     0
  9
$DIMSE2
 70
     0
  9
$DIMTAD
 70
     0
  9
$DIMZIN
 70
     0
  9
$DIMBLK
  1

  9
$DIMASO
 70
     1
  9
$DIMSHO
 70
     1
  9
$DIMPOST
  1

  9
$DIMAPOST
  1

  9
$DIMALT
 70
     0
  9
$DIMALTD
 70
     2
  9
$DIMALTF
 40
25.4
  9
$DIMLFAC
 40
1.0
  9
$DIMTOFL
 70
     0
  9
$DIMTVP
 40
0.0
  9
$DIMTIX
 70
     0
  9
$DIMSOXD
 70
     0
  9
$DIMSAH
 70
     0
  9
$DIMBLK1
  1

  9
$DIMBLK2
  1

  9
$DIMSTYLE
  2
*UNNAMED
  9
$DIMCLRD
 70
     0
  9
$DIMCLRE
 70
     0
  9
$DIMCLRT
 70
     0
  9
$DIMTFAC
 40
1.0
  9
$DIMGAP
 40
0.09
  9
$LUNITS
 70
     2
  9
$LUPREC
 70
     4
  9
$AXISMODE
 70
     0
  9
$AXISUNIT
 10
0.0
 20
0.0
  9
$SKETCHINC
 40
0.1
  9
$FILLETRAD
 40
0.0
  9
$AUNITS
 70
     0
  9
$AUPREC
 70
     0
  9
$MENU
  1
acad
  9
$ELEVATION
 40
0.0
  9
$PELEVATION
 40
0.0
  9
$THICKNESS
 40
0.0
  9
$LIMCHECK
 70
     0
  9
$BLIPMODE
 70
     1
  9
$CHAMFERA
 40
0.0
  9
$CHAMFERB
 40
0.0
  9
$SKPOLY
 70
     0
  9
$TDCREATE
 40
2448315.373408102
  9
$TDUPDATE
 40
2448315.373408102
  9
$TDINDWG
 40
0.0000000000
  9
$TDUSRTIMER
 40
0.0000000000
  9
$USRTIMER
 70
     1
  9
$ANGBASE
 50
0.0
  9
$ANGDIR
 70
     0
  9
$PDMODE
 70
     0
  9
$PDSIZE
 40
0.0
  9
$PLINEWID
 40
0.0
  9
$COORDS
 70
     0
  9
$SPLFRAME
 70
     0
  9
$SPLINETYPE
 70
     6
  9
$SPLINESEGS
 70
     8
  9
$ATTDIA
 70
     0
  9
$ATTREQ
 70
     1
  9
$HANDLING
 70
     0
  9
$HANDSEED
  5
0
  9
$SURFTAB1
 70
     6
  9
$SURFTAB2
 70
     6
  9
$SURFTYPE
 70
     6
  9
$SURFU
 70
     6
  9
$SURFV
 70
     6
  9
$UCSNAME
  2

  9
$UCSORG
 10
0.0
 20
0.0
 30
0.0
  9
$UCSXDIR
 10
1.0
 20
0.0
 30
0.0
  9
$UCSYDIR
 10
0.0
 20
1.0
 30
0.0
  9
$PUCSNAME
  2

  9
$PUCSORG
 10
0.0
 20
0.0
 30
0.0
  9
$PUCSXDIR
 10
1.0
 20
0.0
 30
0.0
  9
$PUCSYDIR
 10
0.0
 20
1.0
 30
0.0
  9
$USERI1
 70
     0
  9
$USERI2
 70
     0
  9
$USERI3
 70
     0
  9
$USERI4
 70
     0
  9
$USERI5
 70
     0
  9
$USERR1
 40
0.0
  9
$USERR2
 40
0.0
  9
$USERR3
 40
0.0
  9
$USERR4
 40
0.0
  9
$USERR5
 40
0.0
  9
$WORLDVIEW
 70
     1
  9
$SHADEDGE
 70
     3
  9
$SHADEDIF
 70
    70
  9
$TILEMODE
 70
     1
  9
$MAXACTVP
 70
    16
  9
$PINSBASE
 10
0.0
 20
0.0
 30
0.0
  9
$PLIMCHECK
 70
     0
  9
$PEXTMIN
 10
1.000000E+20
 20
1.000000E+20
 30
1.000000E+20
  9
$PEXTMAX
 10
-1.000000E+20
 20
-1.000000E+20
 30
-1.000000E+20
  9
$PLIMMIN
 10
0.0
 20
0.0
  9
$PLIMMAX
 10
12.0
 20
9.0
  9
$UNITMODE
 70
     0
  9
$VISRETAIN
 70
     0
  0
ENDSEC
  0
SECTION
  2
TABLES
  0
TABLE
  2
LTYPE
 70
    1
  0
LTYPE
  2
CONTINUOUS
 70
    64
3
Solid line
 72
    65
 73
0
 40
0.000000
  0
ENDTAB
  0
TABLE
  2
LAYER
 70
    8
  0
LAYER
  2
0
 70
    64
 62
7
  6
CONTINUOUS
  0
LAYER
  2
1
 70
    64
 62
7
  6
CONTINUOUS
  0
LAYER
  2
7
 70
    64
 62
7
  6
CONTINUOUS
  0
LAYER
  2
8
 70
    64
 62
7
  6
CONTINUOUS
  0
LAYER
  2
9
 70
    64
 62
7
  6
CONTINUOUS
  0
LAYER
  2
22
 70
    64
 62
7
  6
CONTINUOUS
  0
LAYER
  2
25
 70
    64
 62
7
  6
CONTINUOUS
  0
LAYER
  2
0
 70
    64
 62
7
  6
CONTINUOUS
  0
ENDTAB
  0
TABLE
  2
STYLE
 70
    1
  0
STYLE
  2
ROMANC
70
     0
 40
0.0
 41
1.0
 50
0.0
 71
     0
 42
0.2
  3
ROMANC
  4

  0
ENDTAB
  0
ENDSEC
  0
SECTION
  2
BLOCKS
  0
ENDSEC
  0
SECTION
  2
ENTITIES
  0
POLYLINE
  8
0
  6
CONTINUOUS
 66
     1
 70
     1
  0
VERTEX
  8
0
  6
CONTINUOUS
 10
281.396000
 20
32.867000
  0
VERTEX
  8
0
  6
CONTINUOUS
 10
283.496000
 20
32.867000
  0
VERTEX
  8
0
  6
CONTINUOUS
 10
283.496000
 20
29.897000
  0
VERTEX
  8
0
  6
CONTINUOUS
 10
281.396000
 20
29.897000
  0
SEQEND
  8
0
  0
TEXT
  8
0
  6
CONTINUOUS
 40
0.060000
 10
282.015000
 20
32.425000
  1
ESCALA  1:10
  7
ROMANC
  0
TEXT
  8
0
  6
CONTINUOUS
 40
0.018000
 10
282.665000
 20
32.343000
  1
2
  7
ROMANC
  0
TEXT
  8
0
  6
CONTINUOUS
 40
0.060000
 10
282.018000
 20
32.539000
  1
TIPUS   T30
  7
ROMANC
  0
TEXT
  8
0
  6
CONTINUOUS
 40
0.060000
 10
282.019000
 20
32.298000
  1
S = 30 dm
  7
ROMANC
  0
TEXT
  8
0
  6
CONTINUOUS
 40
0.060000
 10
282.019000
 20
32.166000
  1
P = 20 dm
  7
ROMANC
  0
ARC
  8
0
  6
CONTINUOUS
 10
282.413000
 20
30.937000
 40
0.250000
 50
360.000000
 51
540.000000
  0
POLYLINE
  8
0
  6
CONTINUOUS
 66
     1
 70
     0
  0
VERTEX
  8
0
  6
CONTINUOUS
 10
282.163000
 20
30.937000
 42
0.016322
  0
VERTEX
  8
0
  6
CONTINUOUS
 10
282.165107
 20
30.872152
 42
0.016967
  0
VERTEX
  8
0
  6
CONTINUOUS
 10
282.171519
 20
30.807590
 42
0.017395
  0
VERTEX
  8
0
  6
CONTINUOUS
 10
282.181781
 20
30.746828
 42
0.019560
  0
VERTEX
  8
0
  6
CONTINUOUS
 10
282.196494
 20
30.687000
 42
0.020572
  0
VERTEX
  8
0
  6
CONTINUOUS
 10
282.214003
 20
30.634304
 42
0.025066
  0
VERTEX
  8
0
  6
CONTINUOUS
 10
282.236223
 20
30.583447
 42
0.027056
  0
VERTEX
  8
0
  6
CONTINUOUS
 10
282.259652
 20
30.542075
 42
0.035428
  0
VERTEX
  8
0
  6
CONTINUOUS
 10
282.288000
 20
30.503987
 42
0.039107
  0
VERTEX
  8
0
  6
CONTINUOUS
 10
282.315928
 20
30.476237
 42
0.052063
  0
VERTEX
  8
0
  6
CONTINUOUS
 10
282.348295
 20
30.454037
 42
0.057060
  0
VERTEX
  8
0
  6
CONTINUOUS
 10
282.379656
 20
30.441568
 42
0.065631
  0
VERTEX
  8
0
  6
CONTINUOUS
 10
282.413000
 20
30.437000
 42
0.065631
  0
VERTEX
  8
0
  6
CONTINUOUS
 10
282.446344
 20
30.441568
 42
0.057060
  0
VERTEX
  8
0
  6
CONTINUOUS
 10
282.477705
 20
30.454037
 42
0.052063
  0
VERTEX
  8
0
  6
CONTINUOUS
 10
282.510072
 20
30.476237
 42
0.039107
  0
VERTEX
  8
0
  6
CONTINUOUS
 10
282.538000
 20
30.503987
 42
0.035428
  0
VERTEX
  8
0
  6
CONTINUOUS
 10
282.566348
 20
30.542075
 42
0.027056
  0
VERTEX
  8
0
  6
CONTINUOUS
 10
282.589777
 20
30.583447
 42
0.025066
  0
VERTEX
  8
0
  6
CONTINUOUS
 10
282.611997
 20
30.634304
 42
0.020572
  0
VERTEX
  8
0
  6
CONTINUOUS
 10
282.629506
 20
30.687000
 42
0.019560
  0
VERTEX
  8
0
  6
CONTINUOUS
 10
282.644219
 20
30.746828
 42
0.017395
  0
VERTEX
  8
0
  6
CONTINUOUS
 10
282.654481
 20
30.807590
 42
0.016967
  0
VERTEX
  8
0
  6
CONTINUOUS
 10
282.660893
 20
30.872152
 42
0.016322
  0
VERTEX
  8
0
  6
CONTINUOUS
 10
282.663000
 20
30.937000
  0
SEQEND
  8
0
  0
TEXT
  8
0
  6
CONTINUOUS
 40
0.018000
 10
282.384000
 20
31.264000
  1
0.50
  7
ROMANC
  0
LINE
  8
0
  6
CONTINUOUS
 10
282.375000
 20
31.273000
 11
282.163000
 21
31.273000
  0
LINE
  8
0
  6
CONTINUOUS
 10
282.450000
 20
31.273000
 11
282.663000
 21
31.273000
  0
LINE
  8
0
  6
CONTINUOUS
 10
282.154000
 20
31.268000
 11
282.172000
 21
31.278000
  0
LINE
  8
0
  6
CONTINUOUS
 10
282.672000
 20
31.278000
 11
282.654000
 21
31.268000
  0
LINE
  8
0
  6
CONTINUOUS
 10
282.163000
 20
30.946000
 11
282.163000
 21
31.282000
  0
LINE
  8
0
  6
CONTINUOUS
 10
282.663000
 20
30.946000
 11
282.663000
 21
31.282000
  0
TEXT
  8
0
  6
CONTINUOUS
 40
0.018000
 10
282.764000
 20
30.783000
  1
0.75
 50
90.000000
  7
ROMANC
  0
LINE
  8
0
  6
CONTINUOUS
 10
282.755000
 20
30.774000
 11
282.755000
 21
30.437000
  0
LINE
  8
0
  6
CONTINUOUS
 10
282.755000
 20
30.849000
 11
282.755000
 21
31.187000
  0
LINE
  8
0
  6
CONTINUOUS
 10
282.760000
 20
30.428000
 11
282.750000
 21
30.446000
  0
LINE
  8
0
  6
CONTINUOUS
 10
282.750000
 20
31.196000
 11
282.760000
 21
31.178000
  0
LINE
  8
0
  6
CONTINUOUS
 10
282.422000
 20
30.437000
 11
282.764000
 21
30.437000
  0
LINE
  8
0
  6
CONTINUOUS
 10
282.422000
 20
31.187000
 11
282.764000
 21
31.187000
  0
ARC
  8
0
  6
CONTINUOUS
 10
282.413000
 20
30.937000
 40
0.253000
 50
360.000000
 51
540.000000
  0
ARC
  8
0
  6
CONTINUOUS
 10
282.413000
 20
30.937000
 40
0.256000
 50
360.000000
 51
540.000000
  0
POLYLINE
  8
0
  6
CONTINUOUS
 66
     1
 70
     0
  0
VERTEX
  8
0
  6
CONTINUOUS
 10
282.160000
 20
30.937000
 42
0.016420
  0
VERTEX
  8
0
  6
CONTINUOUS
 10
282.162132
 20
30.871761
 42
0.017065
  0
VERTEX
  8
0
  6
CONTINUOUS
 10
282.168621
 20
30.806814
 42
0.017494
  0
VERTEX
  8
0
  6
CONTINUOUS
 10
282.179007
 20
30.745681
 42
0.019662
  0
VERTEX
  8
0
  6
CONTINUOUS
 10
282.193896
 20
30.685500
 42
0.020674
  0
VERTEX
  8
0
  6
CONTINUOUS
 10
282.211619
 20
30.632478
 42
0.025163
  0
VERTEX
  8
0
  6
CONTINUOUS
 10
282.234102
 20
30.581325
 42
0.027148
  0
VERTEX
  8
0
  6
CONTINUOUS
 10
282.257822
 20
30.539692
 42
0.035475
  0
VERTEX
  8
0
  6
CONTINUOUS
 10
282.286500
 20
30.501389
 42
0.039127
  0
VERTEX
  8
0
  6
CONTINUOUS
 10
282.314779
 20
30.473460
 42
0.051925
  0
VERTEX
  8
0
  6
CONTINUOUS
 10
282.347519
 20
30.451139
 42
0.056837
  0
VERTEX
  8
0
  6
CONTINUOUS
 10
282.379266
 20
30.438592
 42
0.065240
  0
VERTEX
  8
0
  6
CONTINUOUS
 10
282.413000
 20
30.434000
 42
0.065240
  0
VERTEX
  8
0
  6
CONTINUOUS
 10
282.446734
 20
30.438592
 42
0.056837
  0
VERTEX
  8
0
  6
CONTINUOUS
 10
282.478481
 20
30.451139
 42
0.051925
  0
VERTEX
  8
0
  6
CONTINUOUS
 10
282.511221
 20
30.473460
 42
0.039127
  0
VERTEX
  8
0
  6
CONTINUOUS
 10
282.539500
 20
30.501389
 42
0.035475
  0
VERTEX
  8
0
  6
CONTINUOUS
 10
282.568178
 20
30.539692
 42
0.027148
  0
VERTEX
  8
0
  6
CONTINUOUS
 10
282.591898
 20
30.581325
 42
0.025163
  0
VERTEX
  8
0
  6
CONTINUOUS
 10
282.614381
 20
30.632478
 42
0.020674
  0
VERTEX
  8
0
  6
CONTINUOUS
 10
282.632104
 20
30.685500
 42
0.019662
  0
VERTEX
  8
0
  6
CONTINUOUS
 10
282.646993
 20
30.745681
 42
0.017494
  0
VERTEX
  8
0
  6
CONTINUOUS
 10
282.657379
 20
30.806814
 42
0.017065
  0
VERTEX
  8
0
  6
CONTINUOUS
 10
282.663868
 20
30.871761
 42
0.016420
  0
VERTEX
  8
0
  6
CONTINUOUS
 10
282.666000
 20
30.937000
  0
SEQEND
  8
0
  0
POLYLINE
  8
0
  6
CONTINUOUS
 66
     1
 70
     0
  0
VERTEX
  8
0
  6
CONTINUOUS
 10
282.157000
 20
30.937000
 42
0.016516
  0
VERTEX
  8
0
  6
CONTINUOUS
 10
282.159158
 20
30.871370
 42
0.017163
  0
VERTEX
  8
0
  6
CONTINUOUS
 10
282.165723
 20
30.806038
 42
0.017592
  0
VERTEX
  8
0
  6
CONTINUOUS
 10
282.176234
 20
30.744535
 42
0.019762
  0
VERTEX
  8
0
  6
CONTINUOUS
 10
282.191297
 20
30.684000
 42
0.020774
  0
VERTEX
  8
0
  6
CONTINUOUS
 10
282.209235
 20
30.630652
 42
0.025257
  0
VERTEX
  8
0
  6
CONTINUOUS
 10
282.231981
 20
30.579204
 42
0.027238
  0
VERTEX
  8
0
  6
CONTINUOUS
 10
282.255991
 20
30.537309
 42
0.035521
  0
VERTEX
  8
0
  6
CONTINUOUS
 10
282.285000
 20
30.498791
 42
0.039146
  0
VERTEX
  8
0
  6
CONTINUOUS
 10
282.313630
 20
30.470683
 42
0.051788
  0
VERTEX
  8
0
  6
CONTINUOUS
 10
282.346742
 20
30.448242
 42
0.056618
  0
VERTEX
  8
0
  6
CONTINUOUS
 10
282.378876
 20
30.435615
 42
0.064859
  0
VERTEX
  8
0
  6
CONTINUOUS
 10
282.413000
 20
30.431000
 42
0.064859
  0
VERTEX
  8
0
  6
CONTINUOUS
 10
282.447124
 20
30.435615
 42
0.056618
  0
VERTEX
  8
0
  6
CONTINUOUS
 10
282.479258
 20
30.448242
 42
0.051788
  0
VERTEX
  8
0
  6
CONTINUOUS
 10
282.512370
 20
30.470683
 42
0.039146
  0
VERTEX
  8
0
  6
CONTINUOUS
 10
282.541000
 20
30.498791
 42
0.035521
  0
VERTEX
  8
0
  6
CONTINUOUS
 10
282.570009
 20
30.537309
 42
0.027238
  0
VERTEX
  8
0
  6
CONTINUOUS
 10
282.594019
 20
30.579204
 42
0.025257
  0
VERTEX
  8
0
  6
CONTINUOUS
 10
282.616765
 20
30.630652
 42
0.020774
  0
VERTEX
  8
0
  6
CONTINUOUS
 10
282.634703
 20
30.684000
 42
0.019762
  0
VERTEX
  8
0
  6
CONTINUOUS
 10
282.649766
 20
30.744535
 42
0.017592
  0
VERTEX
  8
0
  6
CONTINUOUS
 10
282.660277
 20
30.806038
 42
0.017163
  0
VERTEX
  8
0
  6
CONTINUOUS
 10
282.666842
 20
30.871370
 42
0.016516
  0
VERTEX
  8
0
  6
CONTINUOUS
 10
282.669000
 20
30.937000
  0
SEQEND
  8
0
  0
ENDSEC
  0
EOF
