  0
SECTION
  2
HEADER
  9
$ACADVER
  1
AC1009
  9
$INSBASE
 10
0.0
 20
0.0
 30
0.0
  9
$EXTMIN
 10
281.396
 20
29.897
 30
0.0
  9
$EXTMAX
 10
291.896
 20
44.747
 30
0.0
  9
$LIMMIN
 10
280.396
 20
28.897
  9
$LIMMAX
 10
292.896
 20
43.747
  9
$ORTHOMODE
 70
     0
  9
$REGENMODE
 70
     1
  9
$FILLMODE
 70
     1
  9
$QTEXTMODE
 70
     0
  9
$MIRRTEXT
 70
     1
  9
$DRAGMODE
 70
     2
  9
$LTSCALE
 40
1.0
  9
$OSMODE
 70
     0
  9
$ATTMODE
 70
     1
  9
$TEXTSIZE
 40
0.2
  9
$TRACEWID
 40
0.05
  9
$TEXTSTYLE
  7
STANDARD
  9
$CLAYER
  8
0
  9
$CELTYPE
  6
BYLAYER
  9
$CECOLOR
 62
   256
  9
$DIMSCALE
 40
1.0
  9
$DIMASZ
 40
0.18
  9
$DIMEXO
 40
0.0625
  9
$DIMDLI
 40
0.38
  9
$DIMRND
 40
0.0
  9
$DIMDLE
 40
0.0
  9
$DIMEXE
 40
0.18
  9
$DIMTP
 40
0.0
  9
$DIMTM
 40
0.0
  9
$DIMTXT
 40
0.18
  9
$DIMCEN
 40
0.09
  9
$DIMTSZ
 40
0.0
  9
$DIMTOL
 70
     0
  9
$DIMLIM
 70
     0
  9
$DIMTIH
 70
     1
  9
$DIMTOH
 70
     1
  9
$DIMSE1
 70
     0
  9
$DIMSE2
 70
     0
  9
$DIMTAD
 70
     0
  9
$DIMZIN
 70
     0
  9
$DIMBLK
  1

  9
$DIMASO
 70
     1
  9
$DIMSHO
 70
     1
  9
$DIMPOST
  1

  9
$DIMAPOST
  1

  9
$DIMALT
 70
     0
  9
$DIMALTD
 70
     2
  9
$DIMALTF
 40
25.4
  9
$DIMLFAC
 40
1.0
  9
$DIMTOFL
 70
     0
  9
$DIMTVP
 40
0.0
  9
$DIMTIX
 70
     0
  9
$DIMSOXD
 70
     0
  9
$DIMSAH
 70
     0
  9
$DIMBLK1
  1

  9
$DIMBLK2
  1

  9
$DIMSTYLE
  2
*UNNAMED
  9
$DIMCLRD
 70
     0
  9
$DIMCLRE
 70
     0
  9
$DIMCLRT
 70
     0
  9
$DIMTFAC
 40
1.0
  9
$DIMGAP
 40
0.09
  9
$LUNITS
 70
     2
  9
$LUPREC
 70
     4
  9
$SKETCHINC
 40
0.1
  9
$FILLETRAD
 40
0.0
  9
$AUNITS
 70
     0
  9
$AUPREC
 70
     0
  9
$MENU
  1
acad
  9
$ELEVATION
 40
0.0
  9
$PELEVATION
 40
0.0
  9
$THICKNESS
 40
0.0
  9
$LIMCHECK
 70
     0
  9
$BLIPMODE
 70
     1
  9
$CHAMFERA
 40
0.0
  9
$CHAMFERB
 40
0.0
  9
$SKPOLY
 70
     0
  9
$TDCREATE
 40
2448315.373408102
  9
$TDUPDATE
 40
2448315.373408102
  9
$TDINDWG
 40
0.0000000000
  9
$TDUSRTIMER
 40
0.0000000000
  9
$USRTIMER
 70
     1
  9
$ANGBASE
 50
0.0
  9
$ANGDIR
 70
     0
  9
$PDMODE
 70
     0
  9
$PDSIZE
 40
0.0
  9
$PLINEWID
 40
0.0
  9
$COORDS
 70
     0
  9
$SPLFRAME
 70
     0
  9
$SPLINETYPE
 70
     6
  9
$SPLINESEGS
 70
     8
  9
$ATTDIA
 70
     0
  9
$ATTREQ
 70
     1
  9
$HANDLING
 70
     0
  9
$HANDSEED
  5
0
  9
$SURFTAB1
 70
     6
  9
$SURFTAB2
 70
     6
  9
$SURFTYPE
 70
     6
  9
$SURFU
 70
     6
  9
$SURFV
 70
     6
  9
$UCSNAME
  2

  9
$UCSORG
 10
0.0
 20
0.0
 30
0.0
  9
$UCSXDIR
 10
1.0
 20
0.0
 30
0.0
  9
$UCSYDIR
 10
0.0
 20
1.0
 30
0.0
  9
$PUCSNAME
  2

  9
$PUCSORG
 10
0.0
 20
0.0
 30
0.0
  9
$PUCSXDIR
 10
1.0
 20
0.0
 30
0.0
  9
$PUCSYDIR
 10
0.0
 20
1.0
 30
0.0
  9
$USERI1
 70
     0
  9
$USERI2
 70
     0
  9
$USERI3
 70
     0
  9
$USERI4
 70
     0
  9
$USERI5
 70
     0
  9
$USERR1
 40
0.0
  9
$USERR2
 40
0.0
  9
$USERR3
 40
0.0
  9
$USERR4
 40
0.0
  9
$USERR5
 40
0.0
  9
$WORLDVIEW
 70
     1
  9
$SHADEDGE
 70
     3
  9
$SHADEDIF
 70
    70
  9
$TILEMODE
 70
     1
  9
$MAXACTVP
 70
    16
  9
$PINSBASE
 10
0.0
 20
0.0
 30
0.0
  9
$PLIMCHECK
 70
     0
  9
$PEXTMIN
 10
1.000000E+20
 20
1.000000E+20
 30
1.000000E+20
  9
$PEXTMAX
 10
-1.000000E+20
 20
-1.000000E+20
 30
-1.000000E+20
  9
$PLIMMIN
 10
0.0
 20
0.0
  9
$PLIMMAX
 10
12.0
 20
9.0
  9
$UNITMODE
 70
     0
  9
$VISRETAIN
 70
     0
  9
$PLINEGEN
 70
     0
  9
$PSLTSCALE
 70
     0
  9
$TREEDEPTH
 70
  3020
  9
$DWGCODEPAGE
  3
iso8859-1
  0
ENDSEC
  0
SECTION
  2
TABLES
  0
TABLE
  2
VPORT
 70
     2
  0
VPORT
  2
*ACTIVE
 70
     0
 10
0.0
 20
0.0
 11
1.0
 21
1.0
 12
293.163362
 22
36.822
 13
0.0
 23
0.0
 14
1.0
 24
1.0
 15
10.0
 25
10.0
 16
0.0
 26
0.0
 36
1.0
 17
0.0
 27
0.0
 37
0.0
 40
15.85
 41
1.611024
 42
50.0
 43
0.0
 44
0.0
 50
0.0
 51
0.0
 71
     0
 72
   100
 73
     1
 74
     0
 75
     0
 76
     0
 77
     0
 78
     0
  0
ENDTAB
  0
TABLE
  2
LTYPE
 70
     1
  0
LTYPE
  2
CONTINUOUS
 70
    64
  3
Solid line
 72
    65
 73
     0
 40
0.0
  0
ENDTAB
  0
TABLE
  2
LAYER
 70
     7
  0
LAYER
  2
0
 70
    64
 62
     7
  6
CONTINUOUS
  0
LAYER
  2
1
 70
    64
 62
     7
  6
CONTINUOUS
  0
LAYER
  2
7
 70
    64
 62
     7
  6
CONTINUOUS
  0
LAYER
  2
8
 70
    64
 62
     7
  6
CONTINUOUS
  0
LAYER
  2
9
 70
    64
 62
     7
  6
CONTINUOUS
  0
LAYER
  2
22
 70
    64
 62
     7
  6
CONTINUOUS
  0
LAYER
  2
25
 70
    64
 62
     7
  6
CONTINUOUS
  0
ENDTAB
  0
TABLE
  2
STYLE
 70
     2
  0
STYLE
  2
STANDARD
 70
     0
 40
0.0
 41
1.0
 50
0.0
 71
     0
 42
3.5
  3
txt
  4

  0
STYLE
  2
ROMANC
 70
     0
 40
0.0
 41
1.0
 50
0.0
 71
     0
 42
0.2
  3
ROMANC
  4

  0
ENDTAB
  0
TABLE
  2
VIEW
 70
     0
  0
ENDTAB
  0
TABLE
  2
UCS
 70
     0
  0
ENDTAB
  0
TABLE
  2
APPID
 70
     1
  0
APPID
  2
ACAD
 70
    64
  0
ENDTAB
  0
TABLE
  2
DIMSTYLE
 70
     0
  0
ENDTAB
  0
ENDSEC
  0
SECTION
  2
BLOCKS
  0
ENDSEC
  0
SECTION
  2
ENTITIES
  0
TEXT
  8
0
  6
CONTINUOUS
 10
286.909
 20
41.324
 30
0.0
 40
0.1
  1
2
  7
ROMANC
  0
TEXT
  8
0
  6
CONTINUOUS
 10
283.926
 20
41.768
 30
0.0
 40
0.3
  1
ESCALA  1:50
  7
ROMANC
  0
POLYLINE
  8
0
  6
CONTINUOUS
 66
     1
 10
0.0
 20
0.0
 30
0.0
 70
     1
  0
VERTEX
  8
0
  6
CONTINUOUS
 10
281.396
 20
44.747
 30
0.0
  0
VERTEX
  8
0
  6
CONTINUOUS
 10
291.896
 20
44.747
 30
0.0
  0
VERTEX
  8
0
  6
CONTINUOUS
 10
291.896
 20
29.897
 30
0.0
  0
VERTEX
  8
0
  6
CONTINUOUS
 10
281.396
 20
29.897
 30
0.0
  0
SEQEND
  8
0
  0
TEXT
  8
0
  6
CONTINUOUS
 10
283.926
 20
42.381
 30
0.0
 40
0.3
  1
TIPUS   T297A
  7
ROMANC
  0
ARC
  8
1
  6
CONTINUOUS
 10
286.608
 20
33.806
 30
0.0
 40
0.8
 50
0.0
 51
180.0
  0
TEXT
  8
0
  6
CONTINUOUS
 10
283.922
 20
40.529
 30
0.0
 40
0.3
  1
P = 66 dm
  7
ROMANC
  0
TEXT
  8
0
  6
CONTINUOUS
 10
283.945
 20
41.099
 30
0.0
 40
0.3
  1
S = 297 dm
  7
ROMANC
  0
LINE
  8
1
  6
CONTINUOUS
 10
286.258
 20
32.556
 30
0.0
 11
285.958
 21
32.556
 31
0.0
  0
TEXT
  8
1
  6
CONTINUOUS
 10
285.534
 20
32.104
 30
0.0
 40
0.075
  1
0.30
  7
ROMANC
  0
LINE
  8
1
  6
CONTINUOUS
 10
285.884
 20
32.141
 30
0.0
 11
285.958
 21
32.141
 31
0.0
  0
LINE
  8
1
  6
CONTINUOUS
 10
286.408
 20
32.141
 30
0.0
 11
286.258
 21
32.141
 31
0.0
  0
LINE
  8
1
  6
CONTINUOUS
 10
285.996
 20
32.16
 30
0.0
 11
285.92
 21
32.122
 31
0.0
  0
LINE
  8
1
  6
CONTINUOUS
 10
286.22
 20
32.122
 30
0.0
 11
286.296
 21
32.16
 31
0.0
  0
LINE
  8
1
  6
CONTINUOUS
 10
285.958
 20
32.518
 30
0.0
 11
285.958
 21
32.103
 31
0.0
  0
LINE
  8
1
  6
CONTINUOUS
 10
286.258
 20
32.518
 30
0.0
 11
286.258
 21
32.103
 31
0.0
  0
ARC
  8
1
  6
CONTINUOUS
 10
286.608
 20
32.610167
 30
0.0
 40
0.354167
 50
188.797411
 51
351.202589
  0
TEXT
  8
1
  6
CONTINUOUS
 10
286.489
 20
31.962
 30
0.0
 40
0.075
  1
0.70
  7
ROMANC
  0
LINE
  8
1
  6
CONTINUOUS
 10
286.451
 20
31.999
 30
0.0
 11
286.258
 21
31.999
 31
0.0
  0
LINE
  8
1
  6
CONTINUOUS
 10
286.763
 20
31.999
 30
0.0
 11
286.958
 21
31.999
 31
0.0
  0
LINE
  8
1
  6
CONTINUOUS
 10
286.22
 20
31.98
 30
0.0
 11
286.296
 21
32.018
 31
0.0
  0
LINE
  8
1
  6
CONTINUOUS
 10
286.996
 20
32.018
 30
0.0
 11
286.92
 21
31.98
 31
0.0
  0
LINE
  8
1
  6
CONTINUOUS
 10
286.258
 20
32.518
 30
0.0
 11
286.258
 21
31.961
 31
0.0
  0
LINE
  8
1
  6
CONTINUOUS
 10
286.958
 20
32.518
 30
0.0
 11
286.958
 21
31.961
 31
0.0
  0
LINE
  8
1
  6
CONTINUOUS
 10
287.258
 20
32.556
 30
0.0
 11
286.958
 21
32.556
 31
0.0
  0
TEXT
  8
1
  6
CONTINUOUS
 10
287.017
 20
32.104
 30
0.0
 40
0.075
  1
0.30
  7
ROMANC
  0
LINE
  8
1
  6
CONTINUOUS
 10
286.808
 20
32.141
 30
0.0
 11
286.958
 21
32.141
 31
0.0
  0
LINE
  8
1
  6
CONTINUOUS
 10
287.408
 20
32.141
 30
0.0
 11
287.258
 21
32.141
 31
0.0
  0
LINE
  8
1
  6
CONTINUOUS
 10
286.996
 20
32.16
 30
0.0
 11
286.92
 21
32.122
 31
0.0
  0
LINE
  8
1
  6
CONTINUOUS
 10
287.22
 20
32.122
 30
0.0
 11
287.296
 21
32.16
 31
0.0
  0
LINE
  8
1
  6
CONTINUOUS
 10
286.958
 20
32.518
 30
0.0
 11
286.958
 21
32.103
 31
0.0
  0
LINE
  8
1
  6
CONTINUOUS
 10
287.258
 20
32.518
 30
0.0
 11
287.258
 21
32.103
 31
0.0
  0
LINE
  8
1
  6
CONTINUOUS
 10
285.958
 20
32.556
 30
0.0
 11
285.808
 21
33.806
 31
0.0
  0
TEXT
  8
1
  6
CONTINUOUS
 10
286.498
 20
31.842
 30
0.0
 40
0.075
  1
1.30
  7
ROMANC
  0
LINE
  8
1
  6
CONTINUOUS
 10
286.46
 20
31.88
 30
0.0
 11
285.958
 21
31.88
 31
0.0
  0
LINE
  8
1
  6
CONTINUOUS
 10
286.755
 20
31.88
 30
0.0
 11
287.258
 21
31.88
 31
0.0
  0
LINE
  8
1
  6
CONTINUOUS
 10
285.92
 20
31.861
 30
0.0
 11
285.996
 21
31.899
 31
0.0
  0
LINE
  8
1
  6
CONTINUOUS
 10
287.296
 20
31.899
 30
0.0
 11
287.22
 21
31.861
 31
0.0
  0
LINE
  8
1
  6
CONTINUOUS
 10
285.958
 20
32.518
 30
0.0
 11
285.958
 21
31.842
 31
0.0
  0
LINE
  8
1
  6
CONTINUOUS
 10
287.258
 20
32.518
 30
0.0
 11
287.258
 21
31.842
 31
0.0
  0
TEXT
  8
1
  6
CONTINUOUS
 10
287.572
 20
32.302
 30
0.0
 40
0.075
  1
0.30
 50
90.0
  7
ROMANC
  0
LINE
  8
1
  6
CONTINUOUS
 10
287.534
 20
32.106
 30
0.0
 11
287.534
 21
32.256
 31
0.0
  0
LINE
  8
1
  6
CONTINUOUS
 10
287.534
 20
32.706
 30
0.0
 11
287.534
 21
32.556
 31
0.0
  0
LINE
  8
1
  6
CONTINUOUS
 10
287.515
 20
32.294
 30
0.0
 11
287.553
 21
32.218
 31
0.0
  0
LINE
  8
1
  6
CONTINUOUS
 10
287.553
 20
32.518
 30
0.0
 11
287.515
 21
32.594
 31
0.0
  0
LINE
  8
1
  6
CONTINUOUS
 10
286.646
 20
32.256
 30
0.0
 11
287.572
 21
32.256
 31
0.0
  0
LINE
  8
1
  6
CONTINUOUS
 10
286.996
 20
32.556
 30
0.0
 11
287.572
 21
32.556
 31
0.0
  0
LINE
  8
1
  6
CONTINUOUS
 10
287.408
 20
33.806
 30
0.0
 11
287.258
 21
32.556
 31
0.0
  0
TEXT
  8
1
  6
CONTINUOUS
 10
287.572
 20
33.071
 30
0.0
 40
0.075
  1
1.25
 50
90.0
  7
ROMANC
  0
LINE
  8
1
  6
CONTINUOUS
 10
287.534
 20
33.033
 30
0.0
 11
287.534
 21
32.556
 31
0.0
  0
LINE
  8
1
  6
CONTINUOUS
 10
287.534
 20
33.328
 30
0.0
 11
287.534
 21
33.806
 31
0.0
  0
LINE
  8
1
  6
CONTINUOUS
 10
287.553
 20
32.518
 30
0.0
 11
287.515
 21
32.594
 31
0.0
  0
LINE
  8
1
  6
CONTINUOUS
 10
287.515
 20
33.844
 30
0.0
 11
287.553
 21
33.768
 31
0.0
  0
LINE
  8
1
  6
CONTINUOUS
 10
287.296
 20
32.556
 30
0.0
 11
287.572
 21
32.556
 31
0.0
  0
LINE
  8
1
  6
CONTINUOUS
 10
287.446
 20
33.806
 30
0.0
 11
287.572
 21
33.806
 31
0.0
  0
TEXT
  8
1
  6
CONTINUOUS
 10
287.572
 20
34.087
 30
0.0
 40
0.075
  1
0.80
 50
90.0
  7
ROMANC
  0
LINE
  8
1
  6
CONTINUOUS
 10
287.534
 20
34.049
 30
0.0
 11
287.534
 21
33.806
 31
0.0
  0
LINE
  8
1
  6
CONTINUOUS
 10
287.534
 20
34.361
 30
0.0
 11
287.534
 21
34.606
 31
0.0
  0
LINE
  8
1
  6
CONTINUOUS
 10
287.553
 20
33.768
 30
0.0
 11
287.515
 21
33.844
 31
0.0
  0
LINE
  8
1
  6
CONTINUOUS
 10
287.515
 20
34.644
 30
0.0
 11
287.553
 21
34.568
 31
0.0
  0
LINE
  8
1
  6
CONTINUOUS
 10
286.646
 20
34.606
 30
0.0
 11
287.572
 21
34.606
 31
0.0
  0
TEXT
  8
1
  6
CONTINUOUS
 10
287.748
 20
33.312
 30
0.0
 40
0.075
  1
2.35
 50
90.0
  7
ROMANC
  0
LINE
  8
1
  6
CONTINUOUS
 10
287.71
 20
33.274
 30
0.0
 11
287.71
 21
32.256
 31
0.0
  0
LINE
  8
1
  6
CONTINUOUS
 10
287.71
 20
33.586
 30
0.0
 11
287.71
 21
34.606
 31
0.0
  0
LINE
  8
1
  6
CONTINUOUS
 10
287.729
 20
32.218
 30
0.0
 11
287.691
 21
32.294
 31
0.0
  0
LINE
  8
1
  6
CONTINUOUS
 10
287.691
 20
34.644
 30
0.0
 11
287.729
 21
34.568
 31
0.0
  0
LINE
  8
1
  6
CONTINUOUS
 10
286.646
 20
32.256
 30
0.0
 11
287.748
 21
32.256
 31
0.0
  0
LINE
  8
1
  6
CONTINUOUS
 10
286.646
 20
34.606
 30
0.0
 11
287.748
 21
34.606
 31
0.0
  0
LINE
  8
1
  6
CONTINUOUS
 10
287.417
 20
33.804
 30
0.0
 11
287.266
 21
32.546
 31
0.0
  0
LINE
  8
1
  6
CONTINUOUS
 10
287.427
 20
33.803
 30
0.0
 11
287.275
 21
32.536
 31
0.0
  0
ARC
  8
1
  6
CONTINUOUS
 10
286.608
 20
33.806
 30
0.0
 40
0.81
 50
0.0
 51
180.0
  0
ARC
  8
1
  6
CONTINUOUS
 10
286.608
 20
33.806
 30
0.0
 40
0.82
 50
0.0
 51
180.0
  0
LINE
  8
1
  6
CONTINUOUS
 10
287.266
 20
32.546
 30
0.0
 11
286.966
 21
32.546
 31
0.0
  0
LINE
  8
1
  6
CONTINUOUS
 10
287.275
 20
32.536
 30
0.0
 11
286.975
 21
32.536
 31
0.0
  0
ARC
  8
1
  6
CONTINUOUS
 10
286.608
 20
32.610167
 30
0.0
 40
0.364167
 50
190.148578
 51
349.851422
  0
ARC
  8
1
  6
CONTINUOUS
 10
286.608
 20
32.610167
 30
0.0
 40
0.374167
 50
191.432786
 51
348.567214
  0
LINE
  8
1
  6
CONTINUOUS
 10
286.25
 20
32.546
 30
0.0
 11
285.949
 21
32.546
 31
0.0
  0
LINE
  8
1
  6
CONTINUOUS
 10
286.241
 20
32.536
 30
0.0
 11
285.94
 21
32.536
 31
0.0
  0
LINE
  8
1
  6
CONTINUOUS
 10
285.949
 20
32.546
 30
0.0
 11
285.798
 21
33.804
 31
0.0
  0
LINE
  8
1
  6
CONTINUOUS
 10
285.94
 20
32.536
 30
0.0
 11
285.788
 21
33.803
 31
0.0
  0
LINE
  8
0
 10
285.798
 20
35.527577
 30
0.0
 11
286.387062
 21
35.527577
 31
0.0
  0
LINE
  8
0
 10
285.798
 20
33.804
 30
0.0
 11
285.798
 21
35.527577
 31
0.0
  0
LINE
  8
0
 10
287.417
 20
33.804
 30
0.0
 11
287.417
 21
35.527577
 31
0.0
  0
LINE
  8
1
  6
CONTINUOUS
 10
287.455
 20
35.546577
 30
0.0
 11
287.379
 21
35.508577
 31
0.0
  0
LINE
  8
1
  6
CONTINUOUS
 10
285.836
 20
35.546577
 30
0.0
 11
285.76
 21
35.508577
 31
0.0
  0
TEXT
  8
1
  6
CONTINUOUS
 10
286.449068
 20
35.501525
 30
0.0
 40
0.075
  1
1.60
  7
ROMANC
  0
LINE
  8
0
 10
286.827526
 20
35.527577
 30
0.0
 11
287.417
 21
35.527577
 31
0.0
  0
ENDSEC
  0
EOF
