  0
SECTION
  2
HEADER
  9
$ACADVER
  1
AC1009
  9
$INSBASE
 10
0.0
 20
0.0
 30
0.0
  9
$EXTMIN
 10
281.396000
 20
29.897000
 30
-2147483.648000
  9
$EXTMAX
 10
291.896000
 20
44.747000
 30
0.000000
  9
$LIMMIN
 10
280.396000
 20
28.897000
  9
$LIMMAX
 10
292.896000
 20
43.747000
  9
$ORTHOMODE
 70
     0
  9
$REGENMODE
 70
     1
  9
$FILLMODE
 70
     1
  9
$QTEXTMODE
 70
     0
  9
$MIRRTEXT
 70
     1
  9
$DRAGMODE
 70
     2
  9
$LTSCALE
 40
1.0
  9
$OSMODE
 70
     0
  9
$ATTMODE
 70
     1
  9
$TEXTSIZE
 40
0.2
  9
$TRACEWID
 40
0.05
  9
$TEXTSTYLE
  7
STANDARD
  9
$CLAYER
  8
0
  9
$CELTYPE
  6
BYLAYER
  9
$CECOLOR
 62
   256
  9
$DIMSCALE
 40
1.0
  9
$DIMASZ
 40
0.18
  9
$DIMEXO
 40
0.0625
  9
$DIMDLI
 40
0.38
  9
$DIMRND
 40
0.0
  9
$DIMDLE
 40
0.0
  9
$DIMEXE
 40
0.18
  9
$DIMTP
 40
0.0
  9
$DIMTM
 40
0.0
  9
$DIMTXT
 40
0.18
  9
$DIMCEN
 40
0.09
  9
$DIMTSZ
 40
0.0
  9
$DIMTOL
 70
     0
  9
$DIMLIM
 70
     0
  9
$DIMTIH
 70
     1
  9
$DIMTOH
 70
     1
  9
$DIMSE1
 70
     0
  9
$DIMSE2
 70
     0
  9
$DIMTAD
 70
     0
  9
$DIMZIN
 70
     0
  9
$DIMBLK
  1

  9
$DIMASO
 70
     1
  9
$DIMSHO
 70
     1
  9
$DIMPOST
  1

  9
$DIMAPOST
  1

  9
$DIMALT
 70
     0
  9
$DIMALTD
 70
     2
  9
$DIMALTF
 40
25.4
  9
$DIMLFAC
 40
1.0
  9
$DIMTOFL
 70
     0
  9
$DIMTVP
 40
0.0
  9
$DIMTIX
 70
     0
  9
$DIMSOXD
 70
     0
  9
$DIMSAH
 70
     0
  9
$DIMBLK1
  1

  9
$DIMBLK2
  1

  9
$DIMSTYLE
  2
*UNNAMED
  9
$DIMCLRD
 70
     0
  9
$DIMCLRE
 70
     0
  9
$DIMCLRT
 70
     0
  9
$DIMTFAC
 40
1.0
  9
$DIMGAP
 40
0.09
  9
$LUNITS
 70
     2
  9
$LUPREC
 70
     4
  9
$AXISMODE
 70
     0
  9
$AXISUNIT
 10
0.0
 20
0.0
  9
$SKETCHINC
 40
0.1
  9
$FILLETRAD
 40
0.0
  9
$AUNITS
 70
     0
  9
$AUPREC
 70
     0
  9
$MENU
  1
acad
  9
$ELEVATION
 40
0.0
  9
$PELEVATION
 40
0.0
  9
$THICKNESS
 40
0.0
  9
$LIMCHECK
 70
     0
  9
$BLIPMODE
 70
     1
  9
$CHAMFERA
 40
0.0
  9
$CHAMFERB
 40
0.0
  9
$SKPOLY
 70
     0
  9
$TDCREATE
 40
2448315.373408102
  9
$TDUPDATE
 40
2448315.373408102
  9
$TDINDWG
 40
0.0000000000
  9
$TDUSRTIMER
 40
0.0000000000
  9
$USRTIMER
 70
     1
  9
$ANGBASE
 50
0.0
  9
$ANGDIR
 70
     0
  9
$PDMODE
 70
     0
  9
$PDSIZE
 40
0.0
  9
$PLINEWID
 40
0.0
  9
$COORDS
 70
     0
  9
$SPLFRAME
 70
     0
  9
$SPLINETYPE
 70
     6
  9
$SPLINESEGS
 70
     8
  9
$ATTDIA
 70
     0
  9
$ATTREQ
 70
     1
  9
$HANDLING
 70
     0
  9
$HANDSEED
  5
0
  9
$SURFTAB1
 70
     6
  9
$SURFTAB2
 70
     6
  9
$SURFTYPE
 70
     6
  9
$SURFU
 70
     6
  9
$SURFV
 70
     6
  9
$UCSNAME
  2

  9
$UCSORG
 10
0.0
 20
0.0
 30
0.0
  9
$UCSXDIR
 10
1.0
 20
0.0
 30
0.0
  9
$UCSYDIR
 10
0.0
 20
1.0
 30
0.0
  9
$PUCSNAME
  2

  9
$PUCSORG
 10
0.0
 20
0.0
 30
0.0
  9
$PUCSXDIR
 10
1.0
 20
0.0
 30
0.0
  9
$PUCSYDIR
 10
0.0
 20
1.0
 30
0.0
  9
$USERI1
 70
     0
  9
$USERI2
 70
     0
  9
$USERI3
 70
     0
  9
$USERI4
 70
     0
  9
$USERI5
 70
     0
  9
$USERR1
 40
0.0
  9
$USERR2
 40
0.0
  9
$USERR3
 40
0.0
  9
$USERR4
 40
0.0
  9
$USERR5
 40
0.0
  9
$WORLDVIEW
 70
     1
  9
$SHADEDGE
 70
     3
  9
$SHADEDIF
 70
    70
  9
$TILEMODE
 70
     1
  9
$MAXACTVP
 70
    16
  9
$PINSBASE
 10
0.0
 20
0.0
 30
0.0
  9
$PLIMCHECK
 70
     0
  9
$PEXTMIN
 10
1.000000E+20
 20
1.000000E+20
 30
1.000000E+20
  9
$PEXTMAX
 10
-1.000000E+20
 20
-1.000000E+20
 30
-1.000000E+20
  9
$PLIMMIN
 10
0.0
 20
0.0
  9
$PLIMMAX
 10
12.0
 20
9.0
  9
$UNITMODE
 70
     0
  9
$VISRETAIN
 70
     0
  0
ENDSEC
  0
SECTION
  2
TABLES
  0
TABLE
  2
LTYPE
 70
    1
  0
LTYPE
  2
CONTINUOUS
 70
    64
3
Solid line
 72
    65
 73
0
 40
0.000000
  0
ENDTAB
  0
TABLE
  2
LAYER
 70
    8
  0
LAYER
  2
0
 70
    64
 62
7
  6
CONTINUOUS
  0
LAYER
  2
1
 70
    64
 62
7
  6
CONTINUOUS
  0
LAYER
  2
7
 70
    64
 62
7
  6
CONTINUOUS
  0
LAYER
  2
8
 70
    64
 62
7
  6
CONTINUOUS
  0
LAYER
  2
9
 70
    64
 62
7
  6
CONTINUOUS
  0
LAYER
  2
22
 70
    64
 62
7
  6
CONTINUOUS
  0
LAYER
  2
25
 70
    64
 62
7
  6
CONTINUOUS
  0
LAYER
  2
0
 70
    64
 62
7
  6
CONTINUOUS
  0
ENDTAB
  0
TABLE
  2
STYLE
 70
    1
  0
STYLE
  2
ROMANC
70
     0
 40
0.0
 41
1.0
 50
0.0
 71
     0
 42
0.2
  3
ROMANC
  4

  0
ENDTAB
  0
ENDSEC
  0
SECTION
  2
BLOCKS
  0
ENDSEC
  0
SECTION
  2
ENTITIES
  0
TEXT
  8
0
  6
CONTINUOUS
 40
0.100000
 10
286.909000
 20
41.324000
  1
2
  7
ROMANC
  0
TEXT
  8
0
  6
CONTINUOUS
 40
0.300000
 10
283.926000
 20
41.768000
  1
ESCALA  1:50
  7
ROMANC
  0
POLYLINE
  8
0
  6
CONTINUOUS
 66
     1
 70
     1
  0
VERTEX
  8
0
  6
CONTINUOUS
 10
281.396000
 20
44.747000
  0
VERTEX
  8
0
  6
CONTINUOUS
 10
291.896000
 20
44.747000
  0
VERTEX
  8
0
  6
CONTINUOUS
 10
291.896000
 20
29.897000
  0
VERTEX
  8
0
  6
CONTINUOUS
 10
281.396000
 20
29.897000
  0
SEQEND
  8
0
  0
TEXT
  8
0
  6
CONTINUOUS
 40
0.300000
 10
283.926000
 20
42.381000
  1
TIPUS   T295
  7
ROMANC
  0
ARC
  8
1
  6
CONTINUOUS
 10
286.775000
 20
31.461500
 40
2.312500
 50
55.794542
 51
124.205458
  0
LINE
  8
1
  6
CONTINUOUS
 10
285.475000
 20
32.574000
 11
285.475000
 21
33.374000
  0
TEXT
  8
0
  6
CONTINUOUS
 40
0.300000
 10
283.922000
 20
40.529000
  1
P = 72 dm
  7
ROMANC
  0
TEXT
  8
0
  6
CONTINUOUS
 40
0.300000
 10
283.945000
 20
41.099000
  1
S = 296 dm
  7
ROMANC
  0
LINE
  8
1
  6
CONTINUOUS
 10
286.375000
 20
32.574000
 11
285.475000
 21
32.574000
  0
TEXT
  8
1
  6
CONTINUOUS
 40
0.075000
 10
285.806000
 20
32.150000
  1
0.90
  7
ROMANC
  0
LINE
  8
1
  6
CONTINUOUS
 10
285.768000
 20
32.187000
 11
285.475000
 21
32.187000
  0
LINE
  8
1
  6
CONTINUOUS
 10
286.080000
 20
32.187000
 11
286.375000
 21
32.187000
  0
LINE
  8
1
  6
CONTINUOUS
 10
285.438000
 20
32.168000
 11
285.512000
 21
32.206000
  0
LINE
  8
1
  6
CONTINUOUS
 10
286.412000
 20
32.206000
 11
286.338000
 21
32.168000
  0
LINE
  8
1
  6
CONTINUOUS
 10
285.475000
 20
32.536000
 11
285.475000
 21
32.149000
  0
LINE
  8
1
  6
CONTINUOUS
 10
286.375000
 20
32.536000
 11
286.375000
 21
32.149000
  0
ARC
  8
1
  6
CONTINUOUS
 10
286.775000
 20
32.690667
 40
0.416667
 50
196.260206
 51
343.739797
  0
TEXT
  8
1
  6
CONTINUOUS
 40
0.075000
 10
286.656000
 20
32.006000
  1
0.80
  7
ROMANC
  0
LINE
  8
1
  6
CONTINUOUS
 10
286.618000
 20
32.044000
 11
286.375000
 21
32.044000
  0
LINE
  8
1
  6
CONTINUOUS
 10
286.930000
 20
32.044000
 11
287.175000
 21
32.044000
  0
LINE
  8
1
  6
CONTINUOUS
 10
286.338000
 20
32.025000
 11
286.412000
 21
32.063000
  0
LINE
  8
1
  6
CONTINUOUS
 10
287.212000
 20
32.063000
 11
287.138000
 21
32.025000
  0
LINE
  8
1
  6
CONTINUOUS
 10
286.375000
 20
32.536000
 11
286.375000
 21
32.006000
  0
LINE
  8
1
  6
CONTINUOUS
 10
287.175000
 20
32.536000
 11
287.175000
 21
32.006000
  0
LINE
  8
1
  6
CONTINUOUS
 10
288.075000
 20
32.574000
 11
287.175000
 21
32.574000
  0
TEXT
  8
1
  6
CONTINUOUS
 40
0.075000
 10
287.506000
 20
32.150000
  1
0.90
  7
ROMANC
  0
LINE
  8
1
  6
CONTINUOUS
 10
287.468000
 20
32.187000
 11
287.175000
 21
32.187000
  0
LINE
  8
1
  6
CONTINUOUS
 10
287.780000
 20
32.187000
 11
288.075000
 21
32.187000
  0
LINE
  8
1
  6
CONTINUOUS
 10
287.138000
 20
32.168000
 11
287.212000
 21
32.206000
  0
LINE
  8
1
  6
CONTINUOUS
 10
288.112000
 20
32.206000
 11
288.038000
 21
32.168000
  0
LINE
  8
1
  6
CONTINUOUS
 10
287.175000
 20
32.536000
 11
287.175000
 21
32.149000
  0
LINE
  8
1
  6
CONTINUOUS
 10
288.075000
 20
32.536000
 11
288.075000
 21
32.149000
  0
TEXT
  8
1
  6
CONTINUOUS
 40
0.075000
 10
286.656000
 20
31.866000
  1
2.60
  7
ROMANC
  0
LINE
  8
1
  6
CONTINUOUS
 10
286.618000
 20
31.903000
 11
285.475000
 21
31.903000
  0
LINE
  8
1
  6
CONTINUOUS
 10
286.930000
 20
31.903000
 11
288.075000
 21
31.903000
  0
LINE
  8
1
  6
CONTINUOUS
 10
285.438000
 20
31.884000
 11
285.512000
 21
31.922000
  0
LINE
  8
1
  6
CONTINUOUS
 10
288.112000
 20
31.922000
 11
288.038000
 21
31.884000
  0
LINE
  8
1
  6
CONTINUOUS
 10
285.475000
 20
32.536000
 11
285.475000
 21
31.865000
  0
LINE
  8
1
  6
CONTINUOUS
 10
288.075000
 20
32.536000
 11
288.075000
 21
31.865000
  0
TEXT
  8
1
  6
CONTINUOUS
 40
0.075000
 10
288.236000
 20
32.328000
  1
0.30
 50
90.000000
  7
ROMANC
  0
LINE
  8
1
  6
CONTINUOUS
 10
288.199000
 20
32.124000
 11
288.199000
 21
32.274000
  0
LINE
  8
1
  6
CONTINUOUS
 10
288.199000
 20
32.724000
 11
288.199000
 21
32.574000
  0
LINE
  8
1
  6
CONTINUOUS
 10
288.180000
 20
32.312000
 11
288.218000
 21
32.236000
  0
LINE
  8
1
  6
CONTINUOUS
 10
288.218000
 20
32.536000
 11
288.180000
 21
32.612000
  0
LINE
  8
1
  6
CONTINUOUS
 10
286.813000
 20
32.274000
 11
288.237000
 21
32.274000
  0
LINE
  8
1
  6
CONTINUOUS
 10
287.213000
 20
32.574000
 11
288.237000
 21
32.574000
  0
LINE
  8
1
  6
CONTINUOUS
 10
288.075000
 20
33.374000
 11
288.075000
 21
32.574000
  0
TEXT
  8
1
  6
CONTINUOUS
 40
0.075000
 10
288.352000
 20
32.855000
  1
0.80
 50
90.000000
  7
ROMANC
  0
LINE
  8
1
  6
CONTINUOUS
 10
288.314000
 20
32.817000
 11
288.314000
 21
32.574000
  0
LINE
  8
1
  6
CONTINUOUS
 10
288.314000
 20
33.129000
 11
288.314000
 21
33.374000
  0
LINE
  8
1
  6
CONTINUOUS
 10
288.333000
 20
32.536000
 11
288.295000
 21
32.612000
  0
LINE
  8
1
  6
CONTINUOUS
 10
288.295000
 20
33.412000
 11
288.333000
 21
33.336000
  0
LINE
  8
1
  6
CONTINUOUS
 10
288.113000
 20
32.574000
 11
288.352000
 21
32.574000
  0
LINE
  8
1
  6
CONTINUOUS
 10
288.113000
 20
33.374000
 11
288.352000
 21
33.374000
  0
TEXT
  8
1
  6
CONTINUOUS
 40
0.075000
 10
288.352000
 20
33.452000
  1
0.40
 50
90.000000
  7
ROMANC
  0
LINE
  8
1
  6
CONTINUOUS
 10
288.314000
 20
33.224000
 11
288.314000
 21
33.374000
  0
LINE
  8
1
  6
CONTINUOUS
 10
288.314000
 20
33.924000
 11
288.314000
 21
33.774000
  0
LINE
  8
1
  6
CONTINUOUS
 10
288.295000
 20
33.412000
 11
288.333000
 21
33.336000
  0
LINE
  8
1
  6
CONTINUOUS
 10
288.333000
 20
33.736000
 11
288.295000
 21
33.812000
  0
LINE
  8
1
  6
CONTINUOUS
 10
286.813000
 20
33.774000
 11
288.352000
 21
33.774000
  0
TEXT
  8
1
  6
CONTINUOUS
 40
0.075000
 10
288.496000
 20
32.914000
  1
1.50
 50
90.000000
  7
ROMANC
  0
LINE
  8
1
  6
CONTINUOUS
 10
288.458000
 20
32.876000
 11
288.458000
 21
32.274000
  0
LINE
  8
1
  6
CONTINUOUS
 10
288.458000
 20
33.171000
 11
288.458000
 21
33.774000
  0
LINE
  8
1
  6
CONTINUOUS
 10
288.477000
 20
32.236000
 11
288.439000
 21
32.312000
  0
LINE
  8
1
  6
CONTINUOUS
 10
288.439000
 20
33.812000
 11
288.477000
 21
33.736000
  0
LINE
  8
1
  6
CONTINUOUS
 10
286.813000
 20
32.274000
 11
288.496000
 21
32.274000
  0
LINE
  8
1
  6
CONTINUOUS
 10
286.813000
 20
33.774000
 11
288.496000
 21
33.774000
  0
ARC
  8
1
  6
CONTINUOUS
 10
286.775000
 20
31.461500
 40
2.322500
 50
55.663836
 51
124.336164
  0
ARC
  8
1
  6
CONTINUOUS
 10
286.775000
 20
31.461500
 40
2.332500
 50
55.534047
 51
124.465953
  0
LINE
  8
1
  6
CONTINUOUS
 10
285.465000
 20
32.564000
 11
285.465000
 21
33.379000
  0
LINE
  8
1
  6
CONTINUOUS
 10
285.455000
 20
32.554000
 11
285.455000
 21
33.385000
  0
LINE
  8
1
  6
CONTINUOUS
 10
286.368000
 20
32.564000
 11
285.465000
 21
32.564000
  0
LINE
  8
1
  6
CONTINUOUS
 10
286.360000
 20
32.554000
 11
285.455000
 21
32.554000
  0
ARC
  8
1
  6
CONTINUOUS
 10
286.775000
 20
32.690667
 40
0.426667
 50
197.270006
 51
342.729994
  0
ARC
  8
1
  6
CONTINUOUS
 10
286.775000
 20
32.690667
 40
0.436667
 50
198.238736
 51
341.761264
  0
LINE
  8
1
  6
CONTINUOUS
 10
288.085000
 20
32.564000
 11
287.182000
 21
32.564000
  0
LINE
  8
1
  6
CONTINUOUS
 10
288.095000
 20
32.554000
 11
287.190000
 21
32.554000
  0
LINE
  8
1
  6
CONTINUOUS
 10
288.085000
 20
33.379000
 11
288.085000
 21
32.564000
  0
LINE
  8
1
  6
CONTINUOUS
 10
288.095000
 20
33.385000
 11
288.095000
 21
32.554000
  0
ENDSEC
  0
EOF
