  0
SECTION
  2
HEADER
  9
$ACADVER
  1
AC1009
  9
$INSBASE
 10
0.0
 20
0.0
 30
0.0
  9
$EXTMIN
 10
281.396000
 20
29.897000
 30
-2147483.648000
  9
$EXTMAX
 10
291.896000
 20
44.747000
 30
0.000000
  9
$LIMMIN
 10
280.396000
 20
28.897000
  9
$LIMMAX
 10
292.896000
 20
43.747000
  9
$ORTHOMODE
 70
     0
  9
$REGENMODE
 70
     1
  9
$FILLMODE
 70
     1
  9
$QTEXTMODE
 70
     0
  9
$MIRRTEXT
 70
     1
  9
$DRAGMODE
 70
     2
  9
$LTSCALE
 40
1.0
  9
$OSMODE
 70
     0
  9
$ATTMODE
 70
     1
  9
$TEXTSIZE
 40
0.2
  9
$TRACEWID
 40
0.05
  9
$TEXTSTYLE
  7
STANDARD
  9
$CLAYER
  8
0
  9
$CELTYPE
  6
BYLAYER
  9
$CECOLOR
 62
   256
  9
$DIMSCALE
 40
1.0
  9
$DIMASZ
 40
0.18
  9
$DIMEXO
 40
0.0625
  9
$DIMDLI
 40
0.38
  9
$DIMRND
 40
0.0
  9
$DIMDLE
 40
0.0
  9
$DIMEXE
 40
0.18
  9
$DIMTP
 40
0.0
  9
$DIMTM
 40
0.0
  9
$DIMTXT
 40
0.18
  9
$DIMCEN
 40
0.09
  9
$DIMTSZ
 40
0.0
  9
$DIMTOL
 70
     0
  9
$DIMLIM
 70
     0
  9
$DIMTIH
 70
     1
  9
$DIMTOH
 70
     1
  9
$DIMSE1
 70
     0
  9
$DIMSE2
 70
     0
  9
$DIMTAD
 70
     0
  9
$DIMZIN
 70
     0
  9
$DIMBLK
  1

  9
$DIMASO
 70
     1
  9
$DIMSHO
 70
     1
  9
$DIMPOST
  1

  9
$DIMAPOST
  1

  9
$DIMALT
 70
     0
  9
$DIMALTD
 70
     2
  9
$DIMALTF
 40
25.4
  9
$DIMLFAC
 40
1.0
  9
$DIMTOFL
 70
     0
  9
$DIMTVP
 40
0.0
  9
$DIMTIX
 70
     0
  9
$DIMSOXD
 70
     0
  9
$DIMSAH
 70
     0
  9
$DIMBLK1
  1

  9
$DIMBLK2
  1

  9
$DIMSTYLE
  2
*UNNAMED
  9
$DIMCLRD
 70
     0
  9
$DIMCLRE
 70
     0
  9
$DIMCLRT
 70
     0
  9
$DIMTFAC
 40
1.0
  9
$DIMGAP
 40
0.09
  9
$LUNITS
 70
     2
  9
$LUPREC
 70
     4
  9
$AXISMODE
 70
     0
  9
$AXISUNIT
 10
0.0
 20
0.0
  9
$SKETCHINC
 40
0.1
  9
$FILLETRAD
 40
0.0
  9
$AUNITS
 70
     0
  9
$AUPREC
 70
     0
  9
$MENU
  1
acad
  9
$ELEVATION
 40
0.0
  9
$PELEVATION
 40
0.0
  9
$THICKNESS
 40
0.0
  9
$LIMCHECK
 70
     0
  9
$BLIPMODE
 70
     1
  9
$CHAMFERA
 40
0.0
  9
$CHAMFERB
 40
0.0
  9
$SKPOLY
 70
     0
  9
$TDCREATE
 40
2448315.373408102
  9
$TDUPDATE
 40
2448315.373408102
  9
$TDINDWG
 40
0.0000000000
  9
$TDUSRTIMER
 40
0.0000000000
  9
$USRTIMER
 70
     1
  9
$ANGBASE
 50
0.0
  9
$ANGDIR
 70
     0
  9
$PDMODE
 70
     0
  9
$PDSIZE
 40
0.0
  9
$PLINEWID
 40
0.0
  9
$COORDS
 70
     0
  9
$SPLFRAME
 70
     0
  9
$SPLINETYPE
 70
     6
  9
$SPLINESEGS
 70
     8
  9
$ATTDIA
 70
     0
  9
$ATTREQ
 70
     1
  9
$HANDLING
 70
     0
  9
$HANDSEED
  5
0
  9
$SURFTAB1
 70
     6
  9
$SURFTAB2
 70
     6
  9
$SURFTYPE
 70
     6
  9
$SURFU
 70
     6
  9
$SURFV
 70
     6
  9
$UCSNAME
  2

  9
$UCSORG
 10
0.0
 20
0.0
 30
0.0
  9
$UCSXDIR
 10
1.0
 20
0.0
 30
0.0
  9
$UCSYDIR
 10
0.0
 20
1.0
 30
0.0
  9
$PUCSNAME
  2

  9
$PUCSORG
 10
0.0
 20
0.0
 30
0.0
  9
$PUCSXDIR
 10
1.0
 20
0.0
 30
0.0
  9
$PUCSYDIR
 10
0.0
 20
1.0
 30
0.0
  9
$USERI1
 70
     0
  9
$USERI2
 70
     0
  9
$USERI3
 70
     0
  9
$USERI4
 70
     0
  9
$USERI5
 70
     0
  9
$USERR1
 40
0.0
  9
$USERR2
 40
0.0
  9
$USERR3
 40
0.0
  9
$USERR4
 40
0.0
  9
$USERR5
 40
0.0
  9
$WORLDVIEW
 70
     1
  9
$SHADEDGE
 70
     3
  9
$SHADEDIF
 70
    70
  9
$TILEMODE
 70
     1
  9
$MAXACTVP
 70
    16
  9
$PINSBASE
 10
0.0
 20
0.0
 30
0.0
  9
$PLIMCHECK
 70
     0
  9
$PEXTMIN
 10
1.000000E+20
 20
1.000000E+20
 30
1.000000E+20
  9
$PEXTMAX
 10
-1.000000E+20
 20
-1.000000E+20
 30
-1.000000E+20
  9
$PLIMMIN
 10
0.0
 20
0.0
  9
$PLIMMAX
 10
12.0
 20
9.0
  9
$UNITMODE
 70
     0
  9
$VISRETAIN
 70
     0
  0
ENDSEC
  0
SECTION
  2
TABLES
  0
TABLE
  2
LTYPE
 70
    1
  0
LTYPE
  2
CONTINUOUS
 70
    64
3
Solid line
 72
    65
 73
0
 40
0.000000
  0
ENDTAB
  0
TABLE
  2
LAYER
 70
    8
  0
LAYER
  2
0
 70
    64
 62
7
  6
CONTINUOUS
  0
LAYER
  2
1
 70
    64
 62
7
  6
CONTINUOUS
  0
LAYER
  2
7
 70
    64
 62
7
  6
CONTINUOUS
  0
LAYER
  2
8
 70
    64
 62
7
  6
CONTINUOUS
  0
LAYER
  2
9
 70
    64
 62
7
  6
CONTINUOUS
  0
LAYER
  2
22
 70
    64
 62
7
  6
CONTINUOUS
  0
LAYER
  2
25
 70
    64
 62
7
  6
CONTINUOUS
  0
LAYER
  2
0
 70
    64
 62
7
  6
CONTINUOUS
  0
ENDTAB
  0
TABLE
  2
STYLE
 70
    1
  0
STYLE
  2
ROMANC
70
     0
 40
0.0
 41
1.0
 50
0.0
 71
     0
 42
0.2
  3
ROMANC
  4

  0
ENDTAB
  0
ENDSEC
  0
SECTION
  2
BLOCKS
  0
ENDSEC
  0
SECTION
  2
ENTITIES
  0
TEXT
  8
0
  6
CONTINUOUS
 40
0.100000
 10
286.909000
 20
41.324000
  1
2
  7
ROMANC
  0
TEXT
  8
0
  6
CONTINUOUS
 40
0.300000
 10
283.926000
 20
41.768000
  1
ESCALA  1:50
  7
ROMANC
  0
POLYLINE
  8
0
  6
CONTINUOUS
 66
     1
 70
     1
  0
VERTEX
  8
0
  6
CONTINUOUS
 10
281.396000
 20
44.747000
  0
VERTEX
  8
0
  6
CONTINUOUS
 10
291.896000
 20
44.747000
  0
VERTEX
  8
0
  6
CONTINUOUS
 10
291.896000
 20
29.897000
  0
VERTEX
  8
0
  6
CONTINUOUS
 10
281.396000
 20
29.897000
  0
SEQEND
  8
0
  0
TEXT
  8
0
  6
CONTINUOUS
 40
0.300000
 10
283.926000
 20
42.381000
  1
TIPUS   T278B
  7
ROMANC
  0
ARC
  8
1
  6
CONTINUOUS
 10
286.418000
 20
33.628000
 40
0.800000
 50
0.000000
 51
180.000000
  0
LINE
  8
1
  6
CONTINUOUS
 10
286.318000
 20
32.578000
 11
286.318000
 21
32.678000
  0
TEXT
  8
0
  6
CONTINUOUS
 40
0.300000
 10
283.922000
 20
40.529000
  1
P = 66 dm
  7
ROMANC
  0
TEXT
  8
0
  6
CONTINUOUS
 40
0.300000
 10
283.945000
 20
41.099000
  1
S = 278 dm
  7
ROMANC
  0
LINE
  8
1
  6
CONTINUOUS
 10
286.318000
 20
32.678000
 11
285.618000
 21
32.678000
  0
TEXT
  8
1
  6
CONTINUOUS
 40
0.075000
 10
285.849000
 20
31.984000
  1
0.70
  7
ROMANC
  0
LINE
  8
1
  6
CONTINUOUS
 10
285.811000
 20
32.021000
 11
285.618000
 21
32.021000
  0
LINE
  8
1
  6
CONTINUOUS
 10
286.123000
 20
32.021000
 11
286.318000
 21
32.021000
  0
LINE
  8
1
  6
CONTINUOUS
 10
285.580000
 20
32.002000
 11
285.656000
 21
32.040000
  0
LINE
  8
1
  6
CONTINUOUS
 10
286.356000
 20
32.040000
 11
286.280000
 21
32.002000
  0
LINE
  8
1
  6
CONTINUOUS
 10
285.618000
 20
32.640000
 11
285.618000
 21
31.983000
  0
LINE
  8
1
  6
CONTINUOUS
 10
286.318000
 20
32.640000
 11
286.318000
 21
31.983000
  0
LINE
  8
1
  6
CONTINUOUS
 10
287.218000
 20
32.678000
 11
287.018000
 21
32.678000
  0
TEXT
  8
1
  6
CONTINUOUS
 40
0.075000
 10
286.549000
 20
31.782000
  1
0.70
  7
ROMANC
  0
LINE
  8
1
  6
CONTINUOUS
 10
286.511000
 20
31.819000
 11
286.317000
 21
31.819000
  0
LINE
  8
1
  6
CONTINUOUS
 10
286.823000
 20
31.819000
 11
287.018000
 21
31.819000
  0
LINE
  8
1
  6
CONTINUOUS
 10
286.280000
 20
31.800000
 11
286.354000
 21
31.838000
  0
LINE
  8
1
  6
CONTINUOUS
 10
287.056000
 20
31.838000
 11
286.980000
 21
31.800000
  0
LINE
  8
1
  6
CONTINUOUS
 10
286.317000
 20
32.641000
 11
286.317000
 21
31.781000
  0
LINE
  8
1
  6
CONTINUOUS
 10
287.018000
 20
32.640000
 11
287.018000
 21
31.781000
  0
LINE
  8
1
  6
CONTINUOUS
 10
287.218000
 20
33.628000
 11
287.218000
 21
32.678000
  0
TEXT
  8
1
  6
CONTINUOUS
 40
0.075000
 10
287.452000
 20
31.984000
  1
0.20
  7
ROMANC
  0
LINE
  8
1
  6
CONTINUOUS
 10
286.868000
 20
32.021000
 11
287.018000
 21
32.021000
  0
LINE
  8
1
  6
CONTINUOUS
 10
287.414000
 20
32.021000
 11
287.218000
 21
32.021000
  0
LINE
  8
1
  6
CONTINUOUS
 10
287.056000
 20
32.040000
 11
286.980000
 21
32.002000
  0
LINE
  8
1
  6
CONTINUOUS
 10
287.180000
 20
32.002000
 11
287.256000
 21
32.040000
  0
LINE
  8
1
  6
CONTINUOUS
 10
287.018000
 20
32.640000
 11
287.018000
 21
31.983000
  0
LINE
  8
1
  6
CONTINUOUS
 10
287.218000
 20
32.640000
 11
287.218000
 21
31.983000
  0
TEXT
  8
1
  6
CONTINUOUS
 40
0.075000
 10
286.308000
 20
31.602000
  1
1.60
  7
ROMANC
  0
LINE
  8
1
  6
CONTINUOUS
 10
286.270000
 20
31.640000
 11
285.618000
 21
31.640000
  0
LINE
  8
1
  6
CONTINUOUS
 10
286.565000
 20
31.640000
 11
287.218000
 21
31.640000
  0
LINE
  8
1
  6
CONTINUOUS
 10
285.580000
 20
31.621000
 11
285.656000
 21
31.659000
  0
LINE
  8
1
  6
CONTINUOUS
 10
287.256000
 20
31.659000
 11
287.180000
 21
31.621000
  0
LINE
  8
1
  6
CONTINUOUS
 10
285.618000
 20
32.640000
 11
285.618000
 21
31.602000
  0
LINE
  8
1
  6
CONTINUOUS
 10
287.218000
 20
32.640000
 11
287.218000
 21
31.602000
  0
TEXT
  8
1
  6
CONTINUOUS
 40
0.075000
 10
287.388000
 20
32.313000
  1
0.45
 50
90.000000
  7
ROMANC
  0
LINE
  8
1
  6
CONTINUOUS
 10
287.351000
 20
32.078000
 11
287.351000
 21
32.228000
  0
LINE
  8
1
  6
CONTINUOUS
 10
287.351000
 20
32.828000
 11
287.351000
 21
32.678000
  0
LINE
  8
1
  6
CONTINUOUS
 10
287.332000
 20
32.266000
 11
287.370000
 21
32.190000
  0
LINE
  8
1
  6
CONTINUOUS
 10
287.370000
 20
32.640000
 11
287.332000
 21
32.716000
  0
LINE
  8
1
  6
CONTINUOUS
 10
286.706000
 20
32.228000
 11
287.389000
 21
32.228000
  0
LINE
  8
1
  6
CONTINUOUS
 10
287.056000
 20
32.678000
 11
287.389000
 21
32.678000
  0
TEXT
  8
1
  6
CONTINUOUS
 40
0.075000
 10
287.716000
 20
33.034000
  1
0.95
 50
90.000000
  7
ROMANC
  0
LINE
  8
1
  6
CONTINUOUS
 10
287.679000
 20
32.996000
 11
287.679000
 21
32.678000
  0
LINE
  8
1
  6
CONTINUOUS
 10
287.679000
 20
33.308000
 11
287.679000
 21
33.628000
  0
LINE
  8
1
  6
CONTINUOUS
 10
287.698000
 20
32.640000
 11
287.660000
 21
32.716000
  0
LINE
  8
1
  6
CONTINUOUS
 10
287.660000
 20
33.666000
 11
287.698000
 21
33.590000
  0
LINE
  8
1
  6
CONTINUOUS
 10
287.256000
 20
32.678000
 11
287.717000
 21
32.678000
  0
LINE
  8
1
  6
CONTINUOUS
 10
287.256000
 20
33.628000
 11
287.717000
 21
33.628000
  0
TEXT
  8
1
  6
CONTINUOUS
 40
0.075000
 10
287.716000
 20
33.909000
  1
0.80
 50
90.000000
  7
ROMANC
  0
LINE
  8
1
  6
CONTINUOUS
 10
287.679000
 20
33.871000
 11
287.679000
 21
33.628000
  0
LINE
  8
1
  6
CONTINUOUS
 10
287.679000
 20
34.183000
 11
287.679000
 21
34.428000
  0
LINE
  8
1
  6
CONTINUOUS
 10
287.698000
 20
33.590000
 11
287.660000
 21
33.666000
  0
LINE
  8
1
  6
CONTINUOUS
 10
287.660000
 20
34.466000
 11
287.698000
 21
34.390000
  0
LINE
  8
1
  6
CONTINUOUS
 10
286.456000
 20
34.428000
 11
287.717000
 21
34.428000
  0
TEXT
  8
1
  6
CONTINUOUS
 40
0.075000
 10
287.900000
 20
33.209000
  1
2.20
 50
90.000000
  7
ROMANC
  0
LINE
  8
1
  6
CONTINUOUS
 10
287.863000
 20
33.171000
 11
287.863000
 21
32.228000
  0
LINE
  8
1
  6
CONTINUOUS
 10
287.863000
 20
33.483000
 11
287.863000
 21
34.428000
  0
LINE
  8
1
  6
CONTINUOUS
 10
287.882000
 20
32.190000
 11
287.844000
 21
32.266000
  0
LINE
  8
1
  6
CONTINUOUS
 10
287.844000
 20
34.466000
 11
287.882000
 21
34.390000
  0
LINE
  8
1
  6
CONTINUOUS
 10
286.706000
 20
32.228000
 11
287.901000
 21
32.228000
  0
LINE
  8
1
  6
CONTINUOUS
 10
286.456000
 20
34.428000
 11
287.901000
 21
34.428000
  0
ARC
  8
1
  6
CONTINUOUS
 10
286.668000
 20
32.578000
 40
0.350000
 50
180.000000
 51
360.000000
  0
LINE
  8
1
  6
CONTINUOUS
 10
285.618000
 20
32.678000
 11
285.618000
 21
33.628000
  0
LINE
  8
1
  6
CONTINUOUS
 10
287.018000
 20
32.678000
 11
287.018000
 21
32.578000
  0
TEXT
  8
1
  6
CONTINUOUS
 40
0.075000
 10
287.538000
 20
32.966000
  1
0.10
 50
90.000000
  7
ROMANC
  0
LINE
  8
1
  6
CONTINUOUS
 10
287.501000
 20
32.428000
 11
287.501000
 21
32.578000
  0
LINE
  8
1
  6
CONTINUOUS
 10
287.501000
 20
32.928000
 11
287.501000
 21
32.678000
  0
LINE
  8
1
  6
CONTINUOUS
 10
287.482000
 20
32.616000
 11
287.520000
 21
32.540000
  0
LINE
  8
1
  6
CONTINUOUS
 10
287.520000
 20
32.640000
 11
287.482000
 21
32.716000
  0
LINE
  8
1
  6
CONTINUOUS
 10
287.056000
 20
32.578000
 11
287.539000
 21
32.578000
  0
LINE
  8
1
  6
CONTINUOUS
 10
287.056000
 20
32.678000
 11
287.539000
 21
32.678000
  0
LINE
  8
1
  6
CONTINUOUS
 10
285.608000
 20
32.668000
 11
285.608000
 21
33.628000
  0
LINE
  8
1
  6
CONTINUOUS
 10
285.598000
 20
32.658000
 11
285.598000
 21
33.628000
  0
LINE
  8
1
  6
CONTINUOUS
 10
286.308000
 20
32.668000
 11
285.608000
 21
32.668000
  0
LINE
  8
1
  6
CONTINUOUS
 10
286.298000
 20
32.658000
 11
285.598000
 21
32.658000
  0
LINE
  8
1
  6
CONTINUOUS
 10
286.308000
 20
32.578000
 11
286.308000
 21
32.668000
  0
LINE
  8
1
  6
CONTINUOUS
 10
286.298000
 20
32.578000
 11
286.298000
 21
32.658000
  0
ARC
  8
1
  6
CONTINUOUS
 10
286.668000
 20
32.578000
 40
0.360000
 50
180.000000
 51
360.000000
  0
ARC
  8
1
  6
CONTINUOUS
 10
286.668000
 20
32.578000
 40
0.370000
 50
180.000000
 51
360.000000
  0
LINE
  8
1
  6
CONTINUOUS
 10
287.028000
 20
32.668000
 11
287.028000
 21
32.578000
  0
LINE
  8
1
  6
CONTINUOUS
 10
287.038000
 20
32.658000
 11
287.038000
 21
32.578000
  0
LINE
  8
1
  6
CONTINUOUS
 10
287.228000
 20
32.668000
 11
287.028000
 21
32.668000
  0
LINE
  8
1
  6
CONTINUOUS
 10
287.238000
 20
32.658000
 11
287.038000
 21
32.658000
  0
LINE
  8
1
  6
CONTINUOUS
 10
287.228000
 20
33.628000
 11
287.228000
 21
32.668000
  0
LINE
  8
1
  6
CONTINUOUS
 10
287.238000
 20
33.628000
 11
287.238000
 21
32.658000
  0
ARC
  8
1
  6
CONTINUOUS
 10
286.418000
 20
33.628000
 40
0.810000
 50
0.000000
 51
180.000000
  0
ARC
  8
1
  6
CONTINUOUS
 10
286.418000
 20
33.628000
 40
0.820000
 50
0.000000
 51
180.000000
  0
ENDSEC
  0
EOF
