  0
SECTION
  2
HEADER
  9
$ACADVER
  1
AC1009
  9
$INSBASE
 10
0.0
 20
0.0
 30
0.0
  9
$EXTMIN
 10
281.396
 20
29.897
 30
0.0
  9
$EXTMAX
 10
291.896
 20
44.747
 30
0.0
  9
$LIMMIN
 10
280.396
 20
28.897
  9
$LIMMAX
 10
292.896
 20
43.747
  9
$ORTHOMODE
 70
     0
  9
$REGENMODE
 70
     1
  9
$FILLMODE
 70
     1
  9
$QTEXTMODE
 70
     0
  9
$MIRRTEXT
 70
     1
  9
$DRAGMODE
 70
     2
  9
$LTSCALE
 40
1.0
  9
$OSMODE
 70
     0
  9
$ATTMODE
 70
     1
  9
$TEXTSIZE
 40
0.2
  9
$TRACEWID
 40
0.05
  9
$TEXTSTYLE
  7
ROMANC
  9
$CLAYER
  8
0
  9
$CELTYPE
  6
BYLAYER
  9
$CECOLOR
 62
   256
  9
$DIMSCALE
 40
1.0
  9
$DIMASZ
 40
0.0
  9
$DIMEXO
 40
0.0625
  9
$DIMDLI
 40
0.38
  9
$DIMRND
 40
0.0
  9
$DIMDLE
 40
0.05
  9
$DIMEXE
 40
0.1
  9
$DIMTP
 40
0.0
  9
$DIMTM
 40
0.0
  9
$DIMTXT
 40
0.075
  9
$DIMCEN
 40
0.05
  9
$DIMTSZ
 40
0.05
  9
$DIMTOL
 70
     0
  9
$DIMLIM
 70
     0
  9
$DIMTIH
 70
     1
  9
$DIMTOH
 70
     1
  9
$DIMSE1
 70
     0
  9
$DIMSE2
 70
     0
  9
$DIMTAD
 70
     0
  9
$DIMZIN
 70
     0
  9
$DIMBLK
  1

  9
$DIMASO
 70
     1
  9
$DIMSHO
 70
     1
  9
$DIMPOST
  1

  9
$DIMAPOST
  1

  9
$DIMALT
 70
     0
  9
$DIMALTD
 70
     2
  9
$DIMALTF
 40
25.4
  9
$DIMLFAC
 40
1.0
  9
$DIMTOFL
 70
     0
  9
$DIMTVP
 40
0.0
  9
$DIMTIX
 70
     0
  9
$DIMSOXD
 70
     0
  9
$DIMSAH
 70
     0
  9
$DIMBLK1
  1

  9
$DIMBLK2
  1

  9
$DIMSTYLE
  2
*UNNAMED
  9
$DIMCLRD
 70
     0
  9
$DIMCLRE
 70
     0
  9
$DIMCLRT
 70
     0
  9
$DIMTFAC
 40
2.4
  9
$DIMGAP
 40
0.09
  9
$LUNITS
 70
     2
  9
$LUPREC
 70
     2
  9
$SKETCHINC
 40
0.1
  9
$FILLETRAD
 40
0.0
  9
$AUNITS
 70
     0
  9
$AUPREC
 70
     0
  9
$MENU
  1
acad
  9
$ELEVATION
 40
0.0
  9
$PELEVATION
 40
0.0
  9
$THICKNESS
 40
0.0
  9
$LIMCHECK
 70
     0
  9
$BLIPMODE
 70
     1
  9
$CHAMFERA
 40
0.0
  9
$CHAMFERB
 40
0.0
  9
$SKPOLY
 70
     0
  9
$TDCREATE
 40
2448315.373408102
  9
$TDUPDATE
 40
2448315.373408102
  9
$TDINDWG
 40
0.0000000000
  9
$TDUSRTIMER
 40
0.0000000000
  9
$USRTIMER
 70
     1
  9
$ANGBASE
 50
0.0
  9
$ANGDIR
 70
     0
  9
$PDMODE
 70
     0
  9
$PDSIZE
 40
0.0
  9
$PLINEWID
 40
0.0
  9
$COORDS
 70
     0
  9
$SPLFRAME
 70
     0
  9
$SPLINETYPE
 70
     6
  9
$SPLINESEGS
 70
     8
  9
$ATTDIA
 70
     0
  9
$ATTREQ
 70
     1
  9
$HANDLING
 70
     0
  9
$HANDSEED
  5
0
  9
$SURFTAB1
 70
     6
  9
$SURFTAB2
 70
     6
  9
$SURFTYPE
 70
     6
  9
$SURFU
 70
     6
  9
$SURFV
 70
     6
  9
$UCSNAME
  2

  9
$UCSORG
 10
0.0
 20
0.0
 30
0.0
  9
$UCSXDIR
 10
1.0
 20
0.0
 30
0.0
  9
$UCSYDIR
 10
0.0
 20
1.0
 30
0.0
  9
$PUCSNAME
  2

  9
$PUCSORG
 10
0.0
 20
0.0
 30
0.0
  9
$PUCSXDIR
 10
1.0
 20
0.0
 30
0.0
  9
$PUCSYDIR
 10
0.0
 20
1.0
 30
0.0
  9
$USERI1
 70
     0
  9
$USERI2
 70
     0
  9
$USERI3
 70
     0
  9
$USERI4
 70
     0
  9
$USERI5
 70
     0
  9
$USERR1
 40
0.0
  9
$USERR2
 40
0.0
  9
$USERR3
 40
0.0
  9
$USERR4
 40
0.0
  9
$USERR5
 40
0.0
  9
$WORLDVIEW
 70
     1
  9
$SHADEDGE
 70
     3
  9
$SHADEDIF
 70
    70
  9
$TILEMODE
 70
     1
  9
$MAXACTVP
 70
    16
  9
$PINSBASE
 10
0.0
 20
0.0
 30
0.0
  9
$PLIMCHECK
 70
     0
  9
$PEXTMIN
 10
1.000000E+20
 20
1.000000E+20
 30
1.000000E+20
  9
$PEXTMAX
 10
-1.000000E+20
 20
-1.000000E+20
 30
-1.000000E+20
  9
$PLIMMIN
 10
0.0
 20
0.0
  9
$PLIMMAX
 10
12.0
 20
9.0
  9
$UNITMODE
 70
     0
  9
$VISRETAIN
 70
     0
  9
$PLINEGEN
 70
     0
  9
$PSLTSCALE
 70
     0
  9
$TREEDEPTH
 70
  3020
  9
$DWGCODEPAGE
  3
iso8859-1
  0
ENDSEC
  0
SECTION
  2
TABLES
  0
TABLE
  2
VPORT
 70
     2
  0
VPORT
  2
*ACTIVE
 70
     0
 10
0.0
 20
0.0
 11
1.0
 21
1.0
 12
293.35785
 22
37.322
 13
0.0
 23
0.0
 14
1.0
 24
1.0
 15
10.0
 25
10.0
 16
0.0
 26
0.0
 36
1.0
 17
0.0
 27
0.0
 37
0.0
 40
14.85
 41
1.611024
 42
50.0
 43
0.0
 44
0.0
 50
0.0
 51
0.0
 71
     0
 72
   100
 73
     1
 74
     0
 75
     0
 76
     0
 77
     0
 78
     0
  0
ENDTAB
  0
TABLE
  2
LTYPE
 70
     1
  0
LTYPE
  2
CONTINUOUS
 70
    64
  3
Solid line
 72
    65
 73
     0
 40
0.0
  0
ENDTAB
  0
TABLE
  2
LAYER
 70
     8
  0
LAYER
  2
0
 70
    64
 62
     7
  6
CONTINUOUS
  0
LAYER
  2
1
 70
    64
 62
     7
  6
CONTINUOUS
  0
LAYER
  2
7
 70
    64
 62
     7
  6
CONTINUOUS
  0
LAYER
  2
8
 70
    64
 62
     7
  6
CONTINUOUS
  0
LAYER
  2
9
 70
    64
 62
     7
  6
CONTINUOUS
  0
LAYER
  2
22
 70
    64
 62
     7
  6
CONTINUOUS
  0
LAYER
  2
25
 70
    64
 62
     7
  6
CONTINUOUS
  0
LAYER
  2
DEFPOINTS
 70
    64
 62
     7
  6
CONTINUOUS
  0
ENDTAB
  0
TABLE
  2
STYLE
 70
     2
  0
STYLE
  2
STANDARD
 70
     0
 40
0.0
 41
1.0
 50
0.0
 71
     0
 42
3.5
  3
txt
  4

  0
STYLE
  2
ROMANC
 70
    64
 40
0.0
 41
1.0
 50
0.0
 71
     0
 42
0.2
  3
romanc
  4

  0
ENDTAB
  0
TABLE
  2
VIEW
 70
     0
  0
ENDTAB
  0
TABLE
  2
UCS
 70
     0
  0
ENDTAB
  0
TABLE
  2
APPID
 70
     1
  0
APPID
  2
ACAD
 70
    64
  0
ENDTAB
  0
TABLE
  2
DIMSTYLE
 70
     0
  0
ENDTAB
  0
ENDSEC
  0
SECTION
  2
BLOCKS
  0
BLOCK
  8
0
  2
*D0
 70
    65
 10
0.0
 20
0.0
 30
0.0
  3
*D
  0
LINE
  8
0
  6
BYBLOCK
 62
     0
 10
285.93
 20
34.1795
 30
0.0
 11
285.93
 21
35.271837
 31
0.0
  0
LINE
  8
0
  6
BYBLOCK
 62
     0
 10
287.33
 20
34.1795
 30
0.0
 11
287.33
 21
35.271837
 31
0.0
  0
LINE
  8
0
  6
BYBLOCK
 62
     0
 10
285.88
 20
35.171837
 30
0.0
 11
286.113214
 21
35.171837
 31
0.0
  0
LINE
  8
0
  6
BYBLOCK
 62
     0
 10
287.38
 20
35.171837
 30
0.0
 11
287.146786
 21
35.171837
 31
0.0
  0
LINE
  8
0
  6
BYBLOCK
 62
     0
 10
285.88
 20
35.121837
 30
0.0
 11
285.98
 21
35.221837
 31
0.0
  0
LINE
  8
0
  6
BYBLOCK
 62
     0
 10
287.28
 20
35.121837
 30
0.0
 11
287.38
 21
35.221837
 31
0.0
  0
TEXT
  8
0
  6
BYBLOCK
 62
     0
 10
286.181786
 20
35.134337
 30
0.0
 40
0.075
  1
1.4000 [35.56]
  7
ROMANC
 72
     1
 11
286.63
 21
35.171837
 31
0.0
 73
     2
  0
POINT
  8
DEFPOINTS
  6
BYBLOCK
 62
     0
 10
285.93
 20
34.117
 30
0.0
  0
POINT
  8
DEFPOINTS
  6
BYBLOCK
 62
     0
 10
287.33
 20
34.117
 30
0.0
  0
POINT
  8
DEFPOINTS
  6
BYBLOCK
 62
     0
 10
287.33
 20
35.171837
 30
0.0
  0
ENDBLK
  8
0
  0
BLOCK
  8
0
  2
*D1
 70
    65
 10
0.0
 20
0.0
 30
0.0
  3
*D
  0
LINE
  8
0
  6
BYBLOCK
 62
     0
 10
285.93
 20
34.1795
 30
0.0
 11
285.93
 21
35.290016
 31
0.0
  0
LINE
  8
0
  6
BYBLOCK
 62
     0
 10
287.33
 20
34.1795
 30
0.0
 11
287.33
 21
35.290016
 31
0.0
  0
LINE
  8
0
  6
BYBLOCK
 62
     0
 10
285.88
 20
35.190016
 30
0.0
 11
286.431071
 21
35.190016
 31
0.0
  0
LINE
  8
0
  6
BYBLOCK
 62
     0
 10
287.38
 20
35.190016
 30
0.0
 11
286.828929
 21
35.190016
 31
0.0
  0
LINE
  8
0
  6
BYBLOCK
 62
     0
 10
285.88
 20
35.140016
 30
0.0
 11
285.98
 21
35.240016
 31
0.0
  0
LINE
  8
0
  6
BYBLOCK
 62
     0
 10
287.28
 20
35.140016
 30
0.0
 11
287.38
 21
35.240016
 31
0.0
  0
TEXT
  8
0
  6
BYBLOCK
 62
     0
 10
286.499643
 20
35.152516
 30
0.0
 40
0.075
  1
1.40
  7
ROMANC
 72
     1
 11
286.63
 21
35.190016
 31
0.0
 73
     2
  0
POINT
  8
DEFPOINTS
  6
BYBLOCK
 62
     0
 10
285.93
 20
34.117
 30
0.0
  0
POINT
  8
DEFPOINTS
  6
BYBLOCK
 62
     0
 10
287.33
 20
34.117
 30
0.0
  0
POINT
  8
DEFPOINTS
  6
BYBLOCK
 62
     0
 10
287.33
 20
35.190016
 30
0.0
  0
ENDBLK
  8
0
  0
ENDSEC
  0
SECTION
  2
ENTITIES
  0
TEXT
  8
0
  6
CONTINUOUS
 10
287.189356
 20
41.347349
 30
0.0
 40
0.1
  1
2
  7
ROMANC
  0
TEXT
  8
0
  6
CONTINUOUS
 10
283.926
 20
41.768
 30
0.0
 40
0.3
  1
ESCALA  1:50
  7
ROMANC
  0
POLYLINE
  8
0
  6
CONTINUOUS
 66
     1
 10
0.0
 20
0.0
 30
0.0
 70
     1
  0
VERTEX
  8
0
  6
CONTINUOUS
 10
281.396
 20
44.747
 30
0.0
  0
VERTEX
  8
0
  6
CONTINUOUS
 10
291.896
 20
44.747
 30
0.0
  0
VERTEX
  8
0
  6
CONTINUOUS
 10
291.896
 20
29.897
 30
0.0
  0
VERTEX
  8
0
  6
CONTINUOUS
 10
281.396
 20
29.897
 30
0.0
  0
SEQEND
  8
0
  0
TEXT
  8
0
  6
CONTINUOUS
 10
283.926
 20
42.381
 30
0.0
 40
0.3
  1
TIPUS   T268
  7
ROMANC
  0
ARC
  8
1
  6
CONTINUOUS
 10
286.63
 20
34.117
 30
0.0
 40
0.7
 50
0.0
 51
180.0
  0
LINE
  8
1
  6
CONTINUOUS
 10
286.03
 20
32.817
 30
0.0
 11
285.93
 21
34.117
 31
0.0
  0
TEXT
  8
0
  6
CONTINUOUS
 10
283.922
 20
40.529
 30
0.0
 40
0.3
  1
P = 65 dm
  7
ROMANC
  0
TEXT
  8
0
  6
CONTINUOUS
 10
283.945
 20
41.099
 30
0.0
 40
0.3
  1
S = 268 dm
  7
ROMANC
  0
LINE
  8
1
  6
CONTINUOUS
 10
286.28
 20
32.817
 30
0.0
 11
286.03
 21
32.817
 31
0.0
  0
TEXT
  8
1
  6
CONTINUOUS
 10
285.606
 20
32.264
 30
0.0
 40
0.075
  1
0.25
  7
ROMANC
  0
LINE
  8
1
  6
CONTINUOUS
 10
285.956
 20
32.301
 30
0.0
 11
286.03
 21
32.301
 31
0.0
  0
LINE
  8
1
  6
CONTINUOUS
 10
286.43
 20
32.301
 30
0.0
 11
286.28
 21
32.301
 31
0.0
  0
LINE
  8
1
  6
CONTINUOUS
 10
286.068
 20
32.32
 30
0.0
 11
285.992
 21
32.282
 31
0.0
  0
LINE
  8
1
  6
CONTINUOUS
 10
286.242
 20
32.282
 30
0.0
 11
286.318
 21
32.32
 31
0.0
  0
LINE
  8
1
  6
CONTINUOUS
 10
286.03
 20
32.779
 30
0.0
 11
286.03
 21
32.263
 31
0.0
  0
LINE
  8
1
  6
CONTINUOUS
 10
286.28
 20
32.779
 30
0.0
 11
286.28
 21
32.263
 31
0.0
  0
LINE
  8
1
  6
CONTINUOUS
 10
287.23
 20
32.817
 30
0.0
 11
286.98
 21
32.817
 31
0.0
  0
TEXT
  8
1
  6
CONTINUOUS
 10
287.469
 20
32.264
 30
0.0
 40
0.075
  1
0.25
  7
ROMANC
  0
LINE
  8
1
  6
CONTINUOUS
 10
286.83
 20
32.301
 30
0.0
 11
286.98
 21
32.301
 31
0.0
  0
LINE
  8
1
  6
CONTINUOUS
 10
287.431
 20
32.301
 30
0.0
 11
287.23
 21
32.301
 31
0.0
  0
LINE
  8
1
  6
CONTINUOUS
 10
287.018
 20
32.32
 30
0.0
 11
286.942
 21
32.282
 31
0.0
  0
LINE
  8
1
  6
CONTINUOUS
 10
287.192
 20
32.282
 30
0.0
 11
287.268
 21
32.32
 31
0.0
  0
LINE
  8
1
  6
CONTINUOUS
 10
286.98
 20
32.779
 30
0.0
 11
286.98
 21
32.263
 31
0.0
  0
LINE
  8
1
  6
CONTINUOUS
 10
287.23
 20
32.779
 30
0.0
 11
287.23
 21
32.263
 31
0.0
  0
ARC
  8
1
  6
CONTINUOUS
 10
286.63
 20
32.770125
 30
0.0
 40
0.353125
 50
172.37185
 51
7.62815
  0
TEXT
  8
1
  6
CONTINUOUS
 10
286.511
 20
32.158
 30
0.0
 40
0.075
  1
0.70
  7
ROMANC
  0
LINE
  8
1
  6
CONTINUOUS
 10
286.473
 20
32.195
 30
0.0
 11
286.28
 21
32.195
 31
0.0
  0
LINE
  8
1
  6
CONTINUOUS
 10
286.785
 20
32.195
 30
0.0
 11
286.98
 21
32.195
 31
0.0
  0
LINE
  8
1
  6
CONTINUOUS
 10
286.242
 20
32.176
 30
0.0
 11
286.318
 21
32.214
 31
0.0
  0
LINE
  8
1
  6
CONTINUOUS
 10
287.018
 20
32.214
 30
0.0
 11
286.942
 21
32.176
 31
0.0
  0
LINE
  8
1
  6
CONTINUOUS
 10
286.28
 20
32.779
 30
0.0
 11
286.28
 21
32.157
 31
0.0
  0
LINE
  8
1
  6
CONTINUOUS
 10
286.98
 20
32.779
 30
0.0
 11
286.98
 21
32.157
 31
0.0
  0
TEXT
  8
1
  6
CONTINUOUS
 10
286.52
 20
32.016
 30
0.0
 40
0.075
  1
1.20
  7
ROMANC
  0
LINE
  8
1
  6
CONTINUOUS
 10
286.482
 20
32.053
 30
0.0
 11
286.03
 21
32.053
 31
0.0
  0
LINE
  8
1
  6
CONTINUOUS
 10
286.777
 20
32.053
 30
0.0
 11
287.23
 21
32.053
 31
0.0
  0
LINE
  8
1
  6
CONTINUOUS
 10
285.992
 20
32.034
 30
0.0
 11
286.068
 21
32.072
 31
0.0
  0
LINE
  8
1
  6
CONTINUOUS
 10
287.268
 20
32.072
 30
0.0
 11
287.192
 21
32.034
 31
0.0
  0
LINE
  8
1
  6
CONTINUOUS
 10
286.03
 20
32.779
 30
0.0
 11
286.03
 21
32.015
 31
0.0
  0
LINE
  8
1
  6
CONTINUOUS
 10
287.23
 20
32.779
 30
0.0
 11
287.23
 21
32.015
 31
0.0
  0
TEXT
  8
1
  6
CONTINUOUS
 10
287.422
 20
33.037
 30
0.0
 40
0.075
  1
0.40
 50
90.0
  7
ROMANC
  0
LINE
  8
1
  6
CONTINUOUS
 10
287.384
 20
32.267
 30
0.0
 11
287.384
 21
32.417
 31
0.0
  0
LINE
  8
1
  6
CONTINUOUS
 10
287.384
 20
32.999
 30
0.0
 11
287.384
 21
32.817
 31
0.0
  0
LINE
  8
1
  6
CONTINUOUS
 10
287.365
 20
32.454
 30
0.0
 11
287.403
 21
32.38
 31
0.0
  0
LINE
  8
1
  6
CONTINUOUS
 10
287.403
 20
32.78
 30
0.0
 11
287.365
 21
32.854
 31
0.0
  0
LINE
  8
1
  6
CONTINUOUS
 10
286.668
 20
32.417
 30
0.0
 11
287.422
 21
32.417
 31
0.0
  0
LINE
  8
1
  6
CONTINUOUS
 10
287.018
 20
32.817
 30
0.0
 11
287.422
 21
32.817
 31
0.0
  0
LINE
  8
1
  6
CONTINUOUS
 10
287.33
 20
34.117
 30
0.0
 11
287.23
 21
32.817
 31
0.0
  0
TEXT
  8
1
  6
CONTINUOUS
 10
287.574
 20
33.357
 30
0.0
 40
0.075
  1
1.30
 50
90.0
  7
ROMANC
  0
LINE
  8
1
  6
CONTINUOUS
 10
287.537
 20
33.319
 30
0.0
 11
287.537
 21
32.817
 31
0.0
  0
LINE
  8
1
  6
CONTINUOUS
 10
287.537
 20
33.614
 30
0.0
 11
287.537
 21
34.117
 31
0.0
  0
LINE
  8
1
  6
CONTINUOUS
 10
287.556
 20
32.78
 30
0.0
 11
287.518
 21
32.854
 31
0.0
  0
LINE
  8
1
  6
CONTINUOUS
 10
287.518
 20
34.154
 30
0.0
 11
287.556
 21
34.08
 31
0.0
  0
LINE
  8
1
  6
CONTINUOUS
 10
287.268
 20
32.817
 30
0.0
 11
287.575
 21
32.817
 31
0.0
  0
LINE
  8
1
  6
CONTINUOUS
 10
287.368
 20
34.117
 30
0.0
 11
287.575
 21
34.117
 31
0.0
  0
TEXT
  8
1
  6
CONTINUOUS
 10
287.574
 20
34.348
 30
0.0
 40
0.075
  1
0.70
 50
90.0
  7
ROMANC
  0
LINE
  8
1
  6
CONTINUOUS
 10
287.537
 20
34.31
 30
0.0
 11
287.537
 21
34.117
 31
0.0
  0
LINE
  8
1
  6
CONTINUOUS
 10
287.537
 20
34.622
 30
0.0
 11
287.537
 21
34.817
 31
0.0
  0
LINE
  8
1
  6
CONTINUOUS
 10
287.556
 20
34.08
 30
0.0
 11
287.518
 21
34.154
 31
0.0
  0
LINE
  8
1
  6
CONTINUOUS
 10
287.518
 20
34.854
 30
0.0
 11
287.556
 21
34.78
 31
0.0
  0
LINE
  8
1
  6
CONTINUOUS
 10
286.668
 20
34.817
 30
0.0
 11
287.575
 21
34.817
 31
0.0
  0
TEXT
  8
1
  6
CONTINUOUS
 10
287.704
 20
33.495
 30
0.0
 40
0.075
  1
2.40
 50
90.0
  7
ROMANC
  0
LINE
  8
1
  6
CONTINUOUS
 10
287.666
 20
33.457
 30
0.0
 11
287.666
 21
32.417
 31
0.0
  0
LINE
  8
1
  6
CONTINUOUS
 10
287.666
 20
33.776
 30
0.0
 11
287.666
 21
34.817
 31
0.0
  0
LINE
  8
1
  6
CONTINUOUS
 10
287.685
 20
32.38
 30
0.0
 11
287.647
 21
32.454
 31
0.0
  0
LINE
  8
1
  6
CONTINUOUS
 10
287.647
 20
34.854
 30
0.0
 11
287.685
 21
34.78
 31
0.0
  0
LINE
  8
1
  6
CONTINUOUS
 10
286.668
 20
32.417
 30
0.0
 11
287.704
 21
32.417
 31
0.0
  0
LINE
  8
1
  6
CONTINUOUS
 10
286.668
 20
34.817
 30
0.0
 11
287.704
 21
34.817
 31
0.0
  0
LINE
  8
1
  6
CONTINUOUS
 10
287.339
 20
34.116
 30
0.0
 11
287.238
 21
32.807
 31
0.0
  0
LINE
  8
1
  6
CONTINUOUS
 10
287.349
 20
34.115
 30
0.0
 11
287.248
 21
32.797
 31
0.0
  0
ARC
  8
1
  6
CONTINUOUS
 10
286.63
 20
34.117
 30
0.0
 40
0.71
 50
0.0
 51
180.0
  0
ARC
  8
1
  6
CONTINUOUS
 10
286.63
 20
34.117
 30
0.0
 40
0.72
 50
0.0
 51
180.0
  0
LINE
  8
1
  6
CONTINUOUS
 10
286.021
 20
32.807
 30
0.0
 11
285.92
 21
34.116
 31
0.0
  0
LINE
  8
1
  6
CONTINUOUS
 10
286.011
 20
32.797
 30
0.0
 11
285.91
 21
34.115
 31
0.0
  0
LINE
  8
1
  6
CONTINUOUS
 10
286.269
 20
32.807
 30
0.0
 11
286.021
 21
32.807
 31
0.0
  0
LINE
  8
1
  6
CONTINUOUS
 10
286.258
 20
32.797
 30
0.0
 11
286.011
 21
32.797
 31
0.0
  0
ARC
  8
1
  6
CONTINUOUS
 10
286.63
 20
32.770125
 30
0.0
 40
0.363125
 50
174.171622
 51
5.828378
  0
ARC
  8
1
  6
CONTINUOUS
 10
286.63
 20
32.770125
 30
0.0
 40
0.373125
 50
175.869592
 51
4.130408
  0
LINE
  8
1
  6
CONTINUOUS
 10
287.238
 20
32.807
 30
0.0
 11
286.991
 21
32.807
 31
0.0
  0
LINE
  8
1
  6
CONTINUOUS
 10
287.248
 20
32.797
 30
0.0
 11
287.002
 21
32.797
 31
0.0
  0
POINT
  8
DEFPOINTS
  6
BYBLOCK
 62
     0
 10
285.93
 20
34.117
 30
0.0
  0
POINT
  8
DEFPOINTS
  6
BYBLOCK
 62
     0
 10
287.33
 20
34.117
 30
0.0
  0
LINE
  8
0
  6
BYBLOCK
 62
     0
 10
285.93
 20
34.1795
 30
0.0
 11
285.93
 21
35.290016
 31
0.0
  0
LINE
  8
0
  6
BYBLOCK
 62
     0
 10
287.33
 20
34.1795
 30
0.0
 11
287.33
 21
35.290016
 31
0.0
  0
LINE
  8
0
  6
BYBLOCK
 62
     0
 10
285.88
 20
35.190016
 30
0.0
 11
286.431071
 21
35.190016
 31
0.0
  0
LINE
  8
0
  6
BYBLOCK
 62
     0
 10
287.38
 20
35.190016
 30
0.0
 11
286.828929
 21
35.190016
 31
0.0
  0
LINE
  8
0
  6
BYBLOCK
 62
     0
 10
285.88
 20
35.140016
 30
0.0
 11
285.98
 21
35.240016
 31
0.0
  0
LINE
  8
0
  6
BYBLOCK
 62
     0
 10
287.28
 20
35.140016
 30
0.0
 11
287.38
 21
35.240016
 31
0.0
  0
TEXT
  8
0
  6
BYBLOCK
 62
     0
 10
286.499643
 20
35.152516
 30
0.0
 40
0.075
  1
1.40
  7
ROMANC
 72
     1
 11
286.63
 21
35.190016
 31
0.0
 73
     2
  0
POINT
  8
DEFPOINTS
  6
BYBLOCK
 62
     0
 10
285.93
 20
34.117
 30
0.0
  0
POINT
  8
DEFPOINTS
  6
BYBLOCK
 62
     0
 10
287.33
 20
34.117
 30
0.0
  0
POINT
  8
DEFPOINTS
  6
BYBLOCK
 62
     0
 10
287.33
 20
35.190016
 30
0.0
  0
ENDSEC
  0
EOF
