  0
SECTION
  2
HEADER
  9
$ACADVER
  1
AC1009
  9
$INSBASE
 10
0.0
 20
0.0
 30
0.0
  9
$EXTMIN
 10
249.776434
 20
-27.532393
 30
0.0
  9
$EXTMAX
 10
304.814268
 20
44.88984
 30
0.0
  9
$LIMMIN
 10
0.0
 20
0.0
  9
$LIMMAX
 10
410.0
 20
287.0
  9
$ORTHOMODE
 70
     0
  9
$REGENMODE
 70
     1
  9
$FILLMODE
 70
     1
  9
$QTEXTMODE
 70
     0
  9
$MIRRTEXT
 70
     1
  9
$DRAGMODE
 70
     2
  9
$LTSCALE
 40
25.0
  9
$OSMODE
 70
    32
  9
$ATTMODE
 70
     1
  9
$TEXTSIZE
 40
0.1
  9
$TRACEWID
 40
1.0
  9
$TEXTSTYLE
  7
ROMANC
  9
$CLAYER
  8
0
  9
$CELTYPE
  6
BYLAYER
  9
$CECOLOR
 62
   256
  9
$DIMSCALE
 40
1.5
  9
$DIMASZ
 40
0.1
  9
$DIMEXO
 40
0.01
  9
$DIMDLI
 40
7.0
  9
$DIMRND
 40
0.0
  9
$DIMDLE
 40
0.0
  9
$DIMEXE
 40
0.01
  9
$DIMTP
 40
0.0
  9
$DIMTM
 40
0.0
  9
$DIMTXT
 40
0.05
  9
$DIMCEN
 40
0.1
  9
$DIMTSZ
 40
0.0
  9
$DIMTOL
 70
     0
  9
$DIMLIM
 70
     0
  9
$DIMTIH
 70
     0
  9
$DIMTOH
 70
     0
  9
$DIMSE1
 70
     0
  9
$DIMSE2
 70
     0
  9
$DIMTAD
 70
     1
  9
$DIMZIN
 70
     0
  9
$DIMBLK
  1

  9
$DIMASO
 70
     1
  9
$DIMSHO
 70
     0
  9
$DIMPOST
  1

  9
$DIMAPOST
  1

  9
$DIMALT
 70
     0
  9
$DIMALTD
 70
     2
  9
$DIMALTF
 40
25.4
  9
$DIMLFAC
 40
1.0
  9
$DIMTOFL
 70
     1
  9
$DIMTVP
 40
0.0
  9
$DIMTIX
 70
     1
  9
$DIMSOXD
 70
     0
  9
$DIMSAH
 70
     0
  9
$DIMBLK1
  1

  9
$DIMBLK2
  1

  9
$DIMSTYLE
  2
SILVIA
  9
$DIMCLRD
 70
     0
  9
$DIMCLRE
 70
     0
  9
$DIMCLRT
 70
     0
  9
$DIMTFAC
 40
70.0
  9
$DIMGAP
 40
0.09
  9
$LUNITS
 70
     2
  9
$LUPREC
 70
     2
  9
$SKETCHINC
 40
1.0
  9
$FILLETRAD
 40
0.0
  9
$AUNITS
 70
     0
  9
$AUPREC
 70
     0
  9
$MENU
  1
acad
  9
$ELEVATION
 40
0.0
  9
$PELEVATION
 40
0.0
  9
$THICKNESS
 40
0.0
  9
$LIMCHECK
 70
     0
  9
$BLIPMODE
 70
     0
  9
$CHAMFERA
 40
0.0
  9
$CHAMFERB
 40
0.0
  9
$SKPOLY
 70
     0
  9
$TDCREATE
 40
2450128.517187037
  9
$TDUPDATE
 40
2450207.478927314
  9
$TDINDWG
 40
0.0001818287
  9
$TDUSRTIMER
 40
0.0001818287
  9
$USRTIMER
 70
     1
  9
$ANGBASE
 50
0.0
  9
$ANGDIR
 70
     0
  9
$PDMODE
 70
     0
  9
$PDSIZE
 40
0.0
  9
$PLINEWID
 40
0.0
  9
$COORDS
 70
     2
  9
$SPLFRAME
 70
     0
  9
$SPLINETYPE
 70
     6
  9
$SPLINESEGS
 70
     8
  9
$ATTDIA
 70
     0
  9
$ATTREQ
 70
     1
  9
$HANDLING
 70
     0
  9
$HANDSEED
  5
0
  9
$SURFTAB1
 70
     6
  9
$SURFTAB2
 70
     6
  9
$SURFTYPE
 70
     6
  9
$SURFU
 70
     6
  9
$SURFV
 70
     6
  9
$UCSNAME
  2

  9
$UCSORG
 10
0.0
 20
0.0
 30
0.0
  9
$UCSXDIR
 10
1.0
 20
0.0
 30
0.0
  9
$UCSYDIR
 10
0.0
 20
1.0
 30
0.0
  9
$PUCSNAME
  2

  9
$PUCSORG
 10
0.0
 20
0.0
 30
0.0
  9
$PUCSXDIR
 10
1.0
 20
0.0
 30
0.0
  9
$PUCSYDIR
 10
0.0
 20
1.0
 30
0.0
  9
$USERI1
 70
     0
  9
$USERI2
 70
     0
  9
$USERI3
 70
     0
  9
$USERI4
 70
     0
  9
$USERI5
 70
     0
  9
$USERR1
 40
0.0
  9
$USERR2
 40
0.0
  9
$USERR3
 40
0.0
  9
$USERR4
 40
0.0
  9
$USERR5
 40
0.0
  9
$WORLDVIEW
 70
     1
  9
$SHADEDGE
 70
     3
  9
$SHADEDIF
 70
    70
  9
$TILEMODE
 70
     1
  9
$MAXACTVP
 70
    16
  9
$PINSBASE
 10
0.0
 20
0.0
 30
0.0
  9
$PLIMCHECK
 70
     0
  9
$PEXTMIN
 10
1.000000E+20
 20
1.000000E+20
 30
1.000000E+20
  9
$PEXTMAX
 10
-1.000000E+20
 20
-1.000000E+20
 30
-1.000000E+20
  9
$PLIMMIN
 10
0.0
 20
0.0
  9
$PLIMMAX
 10
12.0
 20
9.0
  9
$UNITMODE
 70
     0
  9
$VISRETAIN
 70
     0
  9
$PLINEGEN
 70
     0
  9
$PSLTSCALE
 70
     0
  9
$TREEDEPTH
 70
  3020
  9
$DWGCODEPAGE
  3
iso8859-1
  0
ENDSEC
  0
SECTION
  2
TABLES
  0
TABLE
  2
VPORT
 70
     1
  0
VPORT
  2
*ACTIVE
 70
     0
 10
0.0
 20
0.0
 11
1.0
 21
1.0
 12
308.341266
 22
38.347946
 13
0.0
 23
0.0
 14
1.0
 24
1.0
 15
10.0
 25
10.0
 16
0.0
 26
0.0
 36
1.0
 17
0.0
 27
0.0
 37
0.0
 40
18.126445
 41
1.65
 42
50.0
 43
0.0
 44
0.0
 50
0.0
 51
0.0
 71
     0
 72
   100
 73
     1
 74
     0
 75
     0
 76
     0
 77
     0
 78
     1
  0
ENDTAB
  0
TABLE
  2
LTYPE
 70
     1
  0
LTYPE
  2
CONTINUOUS
 70
    64
  3
Solid line
 72
    65
 73
     0
 40
0.0
  0
ENDTAB
  0
TABLE
  2
LAYER
 70
     2
  0
LAYER
  2
0
 70
    64
 62
     7
  6
CONTINUOUS
  0
LAYER
  2
DEFPOINTS
 70
    64
 62
     7
  6
CONTINUOUS
  0
ENDTAB
  0
TABLE
  2
STYLE
 70
     2
  0
STYLE
  2
STANDARD
 70
     0
 40
0.0
 41
1.0
 50
0.0
 71
     0
 42
0.1
  3
txt
  4

  0
STYLE
  2
ROMANC
 70
    64
 40
0.0
 41
1.0
 50
0.0
 71
     0
 42
0.1
  3
romanc
  4

  0
ENDTAB
  0
TABLE
  2
VIEW
 70
     0
  0
ENDTAB
  0
TABLE
  2
UCS
 70
     0
  0
ENDTAB
  0
TABLE
  2
APPID
 70
     1
  0
APPID
  2
ACAD
 70
    64
  0
ENDTAB
  0
TABLE
  2
DIMSTYLE
 70
     1
  0
DIMSTYLE
  2
SILVIA
 70
    64
  3

  4

  5

  6

  7

 40
1.5
 41
0.1
 42
0.01
 43
7.0
 44
0.01
 45
0.0
 46
0.0
 47
0.0
 48
0.0
140
0.05
141
0.1
142
0.0
143
25.4
144
1.0
145
0.0
146
70.0
147
0.09
 71
     0
 72
     0
 73
     0
 74
     0
 75
     0
 76
     0
 77
     1
 78
     0
170
     0
171
     2
172
     1
173
     0
174
     1
175
     0
176
     0
177
     0
178
     0
  0
ENDTAB
  0
ENDSEC
  0
SECTION
  2
BLOCKS
  0
BLOCK
  8
0
  2
*D0
 70
    65
 10
0.0
 20
0.0
 30
0.0
  3
*D
  0
LINE
  8
0
  6
BYBLOCK
 62
     0
 10
299.451486
 20
35.339024
 30
0.0
 11
299.925431
 21
35.339024
 31
0.0
  0
LINE
  8
0
  6
BYBLOCK
 62
     0
 10
299.451486
 20
33.639024
 30
0.0
 11
299.925431
 21
33.639024
 31
0.0
  0
LINE
  8
0
  6
BYBLOCK
 62
     0
 10
299.910431
 20
35.189024
 30
0.0
 11
299.910431
 21
33.789024
 31
0.0
  0
SOLID
  8
0
  6
BYBLOCK
 62
     0
 10
299.885431
 20
35.189024
 30
0.0
 11
299.935431
 21
35.189024
 31
0.0
 12
299.910431
 22
35.339024
 32
0.0
 13
299.910431
 23
35.339024
 33
0.0
  0
SOLID
  8
0
  6
BYBLOCK
 62
     0
 10
299.885431
 20
33.789024
 30
0.0
 11
299.935431
 21
33.789024
 31
0.0
 12
299.910431
 22
33.639024
 32
0.0
 13
299.910431
 23
33.639024
 33
0.0
  0
TEXT
  8
0
  6
BYBLOCK
 62
     0
 10
299.872931
 20
34.358667
 30
0.0
 40
0.075
  1
1.72
 50
90.0
  7
ROMANC
 72
     1
 11
299.835431
 21
34.489024
 31
0.0
 73
     2
  0
POINT
  8
DEFPOINTS
  6
BYBLOCK
 62
     0
 10
299.436486
 20
35.339024
 30
0.0
  0
POINT
  8
DEFPOINTS
  6
BYBLOCK
 62
     0
 10
299.436486
 20
33.639024
 30
0.0
  0
POINT
  8
DEFPOINTS
  6
BYBLOCK
 62
     0
 10
299.910431
 20
33.639024
 30
0.0
  0
ENDBLK
  8
0
  0
BLOCK
  8
0
  2
*D1
 70
    65
 10
0.0
 20
0.0
 30
0.0
  3
*D
  0
LINE
  8
0
  6
BYBLOCK
 62
     0
 10
299.451486
 20
33.639024
 30
0.0
 11
299.925431
 21
33.639024
 31
0.0
  0
LINE
  8
0
  6
BYBLOCK
 62
     0
 10
298.730963
 20
33.516898
 30
0.0
 11
299.925431
 21
33.516898
 31
0.0
  0
LINE
  8
0
  6
BYBLOCK
 62
     0
 10
299.910431
 20
33.789024
 30
0.0
 11
299.910431
 21
33.939024
 31
0.0
  0
LINE
  8
0
  6
BYBLOCK
 62
     0
 10
299.910431
 20
33.366898
 30
0.0
 11
299.910431
 21
33.216898
 31
0.0
  0
SOLID
  8
0
  6
BYBLOCK
 62
     0
 10
299.885431
 20
33.789024
 30
0.0
 11
299.935431
 21
33.789024
 31
0.0
 12
299.910431
 22
33.639024
 32
0.0
 13
299.910431
 23
33.639024
 33
0.0
  0
SOLID
  8
0
  6
BYBLOCK
 62
     0
 10
299.885431
 20
33.366898
 30
0.0
 11
299.935431
 21
33.366898
 31
0.0
 12
299.910431
 22
33.516898
 32
0.0
 13
299.910431
 23
33.516898
 33
0.0
  0
LINE
  8
0
  6
BYBLOCK
 62
     0
 10
299.910431
 20
33.639024
 30
0.0
 11
299.910431
 21
33.516898
 31
0.0
  0
TEXT
  8
0
  6
BYBLOCK
 62
     0
 10
299.872931
 20
33.452961
 30
0.0
 40
0.075
  1
0.12
 50
90.0
  7
ROMANC
 72
     1
 11
299.835431
 21
33.577961
 31
0.0
 73
     2
  0
POINT
  8
DEFPOINTS
  6
BYBLOCK
 62
     0
 10
299.436486
 20
33.639024
 30
0.0
  0
POINT
  8
DEFPOINTS
  6
BYBLOCK
 62
     0
 10
298.715963
 20
33.516898
 30
0.0
  0
POINT
  8
DEFPOINTS
  6
BYBLOCK
 62
     0
 10
299.910431
 20
33.516898
 30
0.0
  0
ENDBLK
  8
0
  0
BLOCK
  8
0
  2
*D2
 70
    65
 10
0.0
 20
0.0
 30
0.0
  3
*D
  0
LINE
  8
0
  6
BYBLOCK
 62
     0
 10
298.006486
 20
33.624024
 30
0.0
 11
298.006486
 21
33.059252
 31
0.0
  0
LINE
  8
0
  6
BYBLOCK
 62
     0
 10
299.436486
 20
33.624024
 30
0.0
 11
299.436486
 21
33.059252
 31
0.0
  0
LINE
  8
0
  6
BYBLOCK
 62
     0
 10
298.156486
 20
33.074252
 30
0.0
 11
299.286486
 21
33.074252
 31
0.0
  0
SOLID
  8
0
  6
BYBLOCK
 62
     0
 10
298.156486
 20
33.099252
 30
0.0
 11
298.156486
 21
33.049252
 31
0.0
 12
298.006486
 22
33.074252
 32
0.0
 13
298.006486
 23
33.074252
 33
0.0
  0
SOLID
  8
0
  6
BYBLOCK
 62
     0
 10
299.286486
 20
33.099252
 30
0.0
 11
299.286486
 21
33.049252
 31
0.0
 12
299.436486
 22
33.074252
 32
0.0
 13
299.436486
 23
33.074252
 33
0.0
  0
TEXT
  8
0
  6
BYBLOCK
 62
     0
 10
298.591129
 20
33.111752
 30
0.0
 40
0.075
  1
1.45
  7
ROMANC
 72
     1
 11
298.721486
 21
33.149252
 31
0.0
 73
     2
  0
POINT
  8
DEFPOINTS
  6
BYBLOCK
 62
     0
 10
298.006486
 20
33.639024
 30
0.0
  0
POINT
  8
DEFPOINTS
  6
BYBLOCK
 62
     0
 10
299.436486
 20
33.639024
 30
0.0
  0
POINT
  8
DEFPOINTS
  6
BYBLOCK
 62
     0
 10
299.436486
 20
33.074252
 30
0.0
  0
ENDBLK
  8
0
  0
BLOCK
  8
0
  2
*D3
 70
    65
 10
0.0
 20
0.0
 30
0.0
  3
*D
  0
LINE
  8
0
  6
BYBLOCK
 62
     0
 10
298.515573
 20
33.604024
 30
0.0
 11
298.515573
 21
33.251533
 31
0.0
  0
LINE
  8
0
  6
BYBLOCK
 62
     0
 10
298.927398
 20
33.604024
 30
0.0
 11
298.927398
 21
33.251533
 31
0.0
  0
LINE
  8
0
  6
BYBLOCK
 62
     0
 10
298.365573
 20
33.266533
 30
0.0
 11
298.215573
 21
33.266533
 31
0.0
  0
LINE
  8
0
  6
BYBLOCK
 62
     0
 10
299.077398
 20
33.266533
 30
0.0
 11
299.227398
 21
33.266533
 31
0.0
  0
SOLID
  8
0
  6
BYBLOCK
 62
     0
 10
298.365573
 20
33.291533
 30
0.0
 11
298.365573
 21
33.241533
 31
0.0
 12
298.515573
 22
33.266533
 32
0.0
 13
298.515573
 23
33.266533
 33
0.0
  0
SOLID
  8
0
  6
BYBLOCK
 62
     0
 10
299.077398
 20
33.291533
 30
0.0
 11
299.077398
 21
33.241533
 31
0.0
 12
298.927398
 22
33.266533
 32
0.0
 13
298.927398
 23
33.266533
 33
0.0
  0
LINE
  8
0
  6
BYBLOCK
 62
     0
 10
298.515573
 20
33.266533
 30
0.0
 11
298.927398
 21
33.266533
 31
0.0
  0
TEXT
  8
0
  6
BYBLOCK
 62
     0
 10
298.596486
 20
33.304033
 30
0.0
 40
0.075
  1
0.40
  7
ROMANC
 72
     1
 11
298.721486
 21
33.341533
 31
0.0
 73
     2
  0
POINT
  8
DEFPOINTS
  6
BYBLOCK
 62
     0
 10
298.515573
 20
33.619024
 30
0.0
  0
POINT
  8
DEFPOINTS
  6
BYBLOCK
 62
     0
 10
298.927398
 20
33.619024
 30
0.0
  0
POINT
  8
DEFPOINTS
  6
BYBLOCK
 62
     0
 10
298.927398
 20
33.266533
 30
0.0
  0
ENDBLK
  8
0
  0
ENDSEC
  0
SECTION
  2
ENTITIES
  0
LINE
  8
0
 10
294.314268
 20
44.88984
 30
0.0
 11
294.314268
 21
30.03984
 31
0.0
  0
LINE
  8
0
 10
304.814268
 20
30.03984
 30
0.0
 11
304.814268
 21
44.88984
 31
0.0
  0
LINE
  8
0
 10
294.314268
 20
30.03984
 30
0.0
 11
304.814268
 21
30.03984
 31
0.0
  0
LINE
  8
0
 10
304.814268
 20
44.88984
 30
0.0
 11
294.314268
 21
44.88984
 31
0.0
  0
TEXT
  8
0
 10
296.844241
 20
42.485699
 30
0.0
 40
0.3
  1
TIPUS   T253
  7
ROMANC
  0
TEXT
  8
0
 10
296.806319
 20
40.703816
 30
0.0
 40
0.3
  1
P = 64.3 dm
  7
ROMANC
  0
TEXT
  8
0
 10
296.857335
 20
41.401395
 30
0.0
 40
0.3
  1
S=  253 dm
  7
ROMANC
  0
TEXT
  8
0
 10
296.844241
 20
41.999985
 30
0.0
 40
0.3
  1
ESCALA  1:50
  7
ROMANC
  0
TEXT
  8
0
 10
300.040744
 20
41.707311
 30
0.0
 40
0.1
  1
2
  7
ROMANC
  0
LINE
  8
0
  6
BYBLOCK
 62
     0
 10
299.555302
 20
35.018349
 30
0.0
 11
299.555302
 21
34.665857
 31
0.0
  0
LINE
  8
0
  6
BYBLOCK
 62
     0
 10
299.967127
 20
35.018349
 30
0.0
 11
299.967127
 21
34.665857
 31
0.0
  0
LINE
  8
0
  6
BYBLOCK
 62
     0
 10
299.405302
 20
34.680857
 30
0.0
 11
299.255302
 21
34.680857
 31
0.0
  0
LINE
  8
0
  6
BYBLOCK
 62
     0
 10
300.117127
 20
34.680857
 30
0.0
 11
300.267127
 21
34.680857
 31
0.0
  0
SOLID
  8
0
  6
BYBLOCK
 62
     0
 10
299.405302
 20
34.705857
 30
0.0
 11
299.405302
 21
34.655857
 31
0.0
 12
299.555302
 22
34.680857
 32
0.0
 13
299.555302
 23
34.680857
 33
0.0
  0
SOLID
  8
0
  6
BYBLOCK
 62
     0
 10
300.117127
 20
34.705857
 30
0.0
 11
300.117127
 21
34.655857
 31
0.0
 12
299.967127
 22
34.680857
 32
0.0
 13
299.967127
 23
34.680857
 33
0.0
  0
LINE
  8
0
  6
BYBLOCK
 62
     0
 10
299.555302
 20
34.680857
 30
0.0
 11
299.967127
 21
34.680857
 31
0.0
  0
TEXT
  8
0
  6
BYBLOCK
 62
     0
 10
299.636214
 20
34.718357
 30
0.0
 40
0.075
  1
0.40
  7
ROMANC
 72
     1
 11
299.761214
 21
34.755857
 31
0.0
 73
     2
  0
POINT
  8
DEFPOINTS
  6
BYBLOCK
 62
     0
 10
299.555302
 20
35.033349
 30
0.0
  0
POINT
  8
DEFPOINTS
  6
BYBLOCK
 62
     0
 10
299.967127
 20
35.033349
 30
0.0
  0
POINT
  8
DEFPOINTS
  6
BYBLOCK
 62
     0
 10
299.967127
 20
34.680857
 30
0.0
  0
LINE
  8
0
  6
BYBLOCK
 62
     0
 10
299.046214
 20
35.038349
 30
0.0
 11
299.046214
 21
34.473577
 31
0.0
  0
LINE
  8
0
  6
BYBLOCK
 62
     0
 10
300.476214
 20
35.038349
 30
0.0
 11
300.476214
 21
34.473577
 31
0.0
  0
LINE
  8
0
  6
BYBLOCK
 62
     0
 10
299.196214
 20
34.488577
 30
0.0
 11
300.326214
 21
34.488577
 31
0.0
  0
SOLID
  8
0
  6
BYBLOCK
 62
     0
 10
299.196214
 20
34.513577
 30
0.0
 11
299.196214
 21
34.463577
 31
0.0
 12
299.046214
 22
34.488577
 32
0.0
 13
299.046214
 23
34.488577
 33
0.0
  0
SOLID
  8
0
  6
BYBLOCK
 62
     0
 10
300.326214
 20
34.513577
 30
0.0
 11
300.326214
 21
34.463577
 31
0.0
 12
300.476214
 22
34.488577
 32
0.0
 13
300.476214
 23
34.488577
 33
0.0
  0
TEXT
  8
0
  6
BYBLOCK
 62
     0
 10
299.630857
 20
34.526077
 30
0.0
 40
0.075
  1
1.45
  7
ROMANC
 72
     1
 11
299.761214
 21
34.563577
 31
0.0
 73
     2
  0
POINT
  8
DEFPOINTS
  6
BYBLOCK
 62
     0
 10
299.046214
 20
35.053349
 30
0.0
  0
POINT
  8
DEFPOINTS
  6
BYBLOCK
 62
     0
 10
300.476214
 20
35.053349
 30
0.0
  0
POINT
  8
DEFPOINTS
  6
BYBLOCK
 62
     0
 10
300.476214
 20
34.488577
 30
0.0
  0
LINE
  8
0
  6
BYBLOCK
 62
     0
 10
300.491214
 20
35.053349
 30
0.0
 11
300.96516
 21
35.053349
 31
0.0
  0
LINE
  8
0
  6
BYBLOCK
 62
     0
 10
299.770691
 20
34.931223
 30
0.0
 11
300.96516
 21
34.931223
 31
0.0
  0
LINE
  8
0
  6
BYBLOCK
 62
     0
 10
300.95016
 20
35.203349
 30
0.0
 11
300.95016
 21
35.353349
 31
0.0
  0
LINE
  8
0
  6
BYBLOCK
 62
     0
 10
300.95016
 20
34.781223
 30
0.0
 11
300.95016
 21
34.631223
 31
0.0
  0
SOLID
  8
0
  6
BYBLOCK
 62
     0
 10
300.92516
 20
35.203349
 30
0.0
 11
300.97516
 21
35.203349
 31
0.0
 12
300.95016
 22
35.053349
 32
0.0
 13
300.95016
 23
35.053349
 33
0.0
  0
SOLID
  8
0
  6
BYBLOCK
 62
     0
 10
300.92516
 20
34.781223
 30
0.0
 11
300.97516
 21
34.781223
 31
0.0
 12
300.95016
 22
34.931223
 32
0.0
 13
300.95016
 23
34.931223
 33
0.0
  0
LINE
  8
0
  6
BYBLOCK
 62
     0
 10
300.95016
 20
35.053349
 30
0.0
 11
300.95016
 21
34.931223
 31
0.0
  0
TEXT
  8
0
  6
BYBLOCK
 62
     0
 10
300.91266
 20
34.867286
 30
0.0
 40
0.075
  1
0.12
 50
90.0
  7
ROMANC
 72
     1
 11
300.87516
 21
34.992286
 31
0.0
 73
     2
  0
POINT
  8
DEFPOINTS
  6
BYBLOCK
 62
     0
 10
300.476214
 20
35.053349
 30
0.0
  0
POINT
  8
DEFPOINTS
  6
BYBLOCK
 62
     0
 10
299.755691
 20
34.931223
 30
0.0
  0
POINT
  8
DEFPOINTS
  6
BYBLOCK
 62
     0
 10
300.95016
 20
34.931223
 30
0.0
  0
LINE
  8
0
  6
BYBLOCK
 62
     0
 10
300.491214
 20
36.753349
 30
0.0
 11
300.96516
 21
36.753349
 31
0.0
  0
LINE
  8
0
  6
BYBLOCK
 62
     0
 10
300.491214
 20
35.053349
 30
0.0
 11
300.96516
 21
35.053349
 31
0.0
  0
LINE
  8
0
  6
BYBLOCK
 62
     0
 10
300.95016
 20
36.603349
 30
0.0
 11
300.95016
 21
35.203349
 31
0.0
  0
SOLID
  8
0
  6
BYBLOCK
 62
     0
 10
300.92516
 20
36.603349
 30
0.0
 11
300.97516
 21
36.603349
 31
0.0
 12
300.95016
 22
36.753349
 32
0.0
 13
300.95016
 23
36.753349
 33
0.0
  0
SOLID
  8
0
  6
BYBLOCK
 62
     0
 10
300.92516
 20
35.203349
 30
0.0
 11
300.97516
 21
35.203349
 31
0.0
 12
300.95016
 22
35.053349
 32
0.0
 13
300.95016
 23
35.053349
 33
0.0
  0
TEXT
  8
0
  6
BYBLOCK
 62
     0
 10
300.91266
 20
35.772992
 30
0.0
 40
0.075
  1
1.72
 50
90.0
  7
ROMANC
 72
     1
 11
300.87516
 21
35.903349
 31
0.0
 73
     2
  0
POINT
  8
DEFPOINTS
  6
BYBLOCK
 62
     0
 10
300.476214
 20
36.753349
 30
0.0
  0
POINT
  8
DEFPOINTS
  6
BYBLOCK
 62
     0
 10
300.476214
 20
35.053349
 30
0.0
  0
POINT
  8
DEFPOINTS
  6
BYBLOCK
 62
     0
 10
300.95016
 20
35.053349
 30
0.0
  0
ARC
  8
0
 10
299.761214
 20
35.150015
 30
0.0
 40
0.216667
 50
206.497185
 51
333.502815
  0
LINE
  8
0
 10
299.955121
 20
35.053349
 30
0.0
 11
300.476214
 21
35.053349
 31
0.0
  0
LINE
  8
0
 10
300.476214
 20
35.053349
 30
0.0
 11
300.476214
 21
36.753349
 31
0.0
  0
LINE
  8
0
 10
300.476214
 20
36.753349
 30
0.0
 11
299.046214
 21
36.753349
 31
0.0
  0
LINE
  8
0
 10
299.046214
 20
36.753349
 30
0.0
 11
299.046214
 21
35.053349
 31
0.0
  0
LINE
  8
0
 10
299.046214
 20
35.053349
 30
0.0
 11
299.567307
 21
35.053349
 31
0.0
  0
ARC
  8
0
 10
299.761214
 20
35.150015
 30
0.0
 40
0.236667
 50
209.535172
 51
330.464828
  0
LINE
  8
0
 10
299.967127
 20
35.033349
 30
0.0
 11
300.496214
 21
35.033349
 31
0.0
  0
LINE
  8
0
 10
300.496214
 20
35.033349
 30
0.0
 11
300.496214
 21
36.773349
 31
0.0
  0
LINE
  8
0
 10
300.496214
 20
36.773349
 30
0.0
 11
299.026214
 21
36.773349
 31
0.0
  0
LINE
  8
0
 10
299.026214
 20
36.773349
 30
0.0
 11
299.026214
 21
35.033349
 31
0.0
  0
LINE
  8
0
 10
299.026214
 20
35.033349
 30
0.0
 11
299.555302
 21
35.033349
 31
0.0
  0
ARC
  8
0
 10
299.761214
 20
35.150015
 30
0.0
 40
0.226667
 50
208.072487
 51
331.927513
  0
LINE
  8
0
 10
299.961214
 20
35.043349
 30
0.0
 11
300.486214
 21
35.043349
 31
0.0
  0
LINE
  8
0
 10
300.486214
 20
35.043349
 30
0.0
 11
300.486214
 21
36.763349
 31
0.0
  0
LINE
  8
0
 10
300.486214
 20
36.763349
 30
0.0
 11
299.036214
 21
36.763349
 31
0.0
  0
LINE
  8
0
 10
299.036214
 20
36.763349
 30
0.0
 11
299.036214
 21
35.043349
 31
0.0
  0
LINE
  8
0
 10
299.036214
 20
35.043349
 30
0.0
 11
299.561214
 21
35.043349
 31
0.0
  0
ENDSEC
  0
EOF
