  0
SECTION
  2
HEADER
  9
$ACADVER
  1
AC1009
  9
$INSBASE
 10
0.0
 20
0.0
 30
0.0
  9
$EXTMIN
 10
281.396000
 20
29.897000
 30
-2147483.648000
  9
$EXTMAX
 10
291.896000
 20
44.747000
 30
0.000000
  9
$LIMMIN
 10
280.396000
 20
28.897000
  9
$LIMMAX
 10
292.896000
 20
43.747000
  9
$ORTHOMODE
 70
     0
  9
$REGENMODE
 70
     1
  9
$FILLMODE
 70
     1
  9
$QTEXTMODE
 70
     0
  9
$MIRRTEXT
 70
     1
  9
$DRAGMODE
 70
     2
  9
$LTSCALE
 40
1.0
  9
$OSMODE
 70
     0
  9
$ATTMODE
 70
     1
  9
$TEXTSIZE
 40
0.2
  9
$TRACEWID
 40
0.05
  9
$TEXTSTYLE
  7
STANDARD
  9
$CLAYER
  8
0
  9
$CELTYPE
  6
BYLAYER
  9
$CECOLOR
 62
   256
  9
$DIMSCALE
 40
1.0
  9
$DIMASZ
 40
0.18
  9
$DIMEXO
 40
0.0625
  9
$DIMDLI
 40
0.38
  9
$DIMRND
 40
0.0
  9
$DIMDLE
 40
0.0
  9
$DIMEXE
 40
0.18
  9
$DIMTP
 40
0.0
  9
$DIMTM
 40
0.0
  9
$DIMTXT
 40
0.18
  9
$DIMCEN
 40
0.09
  9
$DIMTSZ
 40
0.0
  9
$DIMTOL
 70
     0
  9
$DIMLIM
 70
     0
  9
$DIMTIH
 70
     1
  9
$DIMTOH
 70
     1
  9
$DIMSE1
 70
     0
  9
$DIMSE2
 70
     0
  9
$DIMTAD
 70
     0
  9
$DIMZIN
 70
     0
  9
$DIMBLK
  1

  9
$DIMASO
 70
     1
  9
$DIMSHO
 70
     1
  9
$DIMPOST
  1

  9
$DIMAPOST
  1

  9
$DIMALT
 70
     0
  9
$DIMALTD
 70
     2
  9
$DIMALTF
 40
25.4
  9
$DIMLFAC
 40
1.0
  9
$DIMTOFL
 70
     0
  9
$DIMTVP
 40
0.0
  9
$DIMTIX
 70
     0
  9
$DIMSOXD
 70
     0
  9
$DIMSAH
 70
     0
  9
$DIMBLK1
  1

  9
$DIMBLK2
  1

  9
$DIMSTYLE
  2
*UNNAMED
  9
$DIMCLRD
 70
     0
  9
$DIMCLRE
 70
     0
  9
$DIMCLRT
 70
     0
  9
$DIMTFAC
 40
1.0
  9
$DIMGAP
 40
0.09
  9
$LUNITS
 70
     2
  9
$LUPREC
 70
     4
  9
$AXISMODE
 70
     0
  9
$AXISUNIT
 10
0.0
 20
0.0
  9
$SKETCHINC
 40
0.1
  9
$FILLETRAD
 40
0.0
  9
$AUNITS
 70
     0
  9
$AUPREC
 70
     0
  9
$MENU
  1
acad
  9
$ELEVATION
 40
0.0
  9
$PELEVATION
 40
0.0
  9
$THICKNESS
 40
0.0
  9
$LIMCHECK
 70
     0
  9
$BLIPMODE
 70
     1
  9
$CHAMFERA
 40
0.0
  9
$CHAMFERB
 40
0.0
  9
$SKPOLY
 70
     0
  9
$TDCREATE
 40
2448315.373408102
  9
$TDUPDATE
 40
2448315.373408102
  9
$TDINDWG
 40
0.0000000000
  9
$TDUSRTIMER
 40
0.0000000000
  9
$USRTIMER
 70
     1
  9
$ANGBASE
 50
0.0
  9
$ANGDIR
 70
     0
  9
$PDMODE
 70
     0
  9
$PDSIZE
 40
0.0
  9
$PLINEWID
 40
0.0
  9
$COORDS
 70
     0
  9
$SPLFRAME
 70
     0
  9
$SPLINETYPE
 70
     6
  9
$SPLINESEGS
 70
     8
  9
$ATTDIA
 70
     0
  9
$ATTREQ
 70
     1
  9
$HANDLING
 70
     0
  9
$HANDSEED
  5
0
  9
$SURFTAB1
 70
     6
  9
$SURFTAB2
 70
     6
  9
$SURFTYPE
 70
     6
  9
$SURFU
 70
     6
  9
$SURFV
 70
     6
  9
$UCSNAME
  2

  9
$UCSORG
 10
0.0
 20
0.0
 30
0.0
  9
$UCSXDIR
 10
1.0
 20
0.0
 30
0.0
  9
$UCSYDIR
 10
0.0
 20
1.0
 30
0.0
  9
$PUCSNAME
  2

  9
$PUCSORG
 10
0.0
 20
0.0
 30
0.0
  9
$PUCSXDIR
 10
1.0
 20
0.0
 30
0.0
  9
$PUCSYDIR
 10
0.0
 20
1.0
 30
0.0
  9
$USERI1
 70
     0
  9
$USERI2
 70
     0
  9
$USERI3
 70
     0
  9
$USERI4
 70
     0
  9
$USERI5
 70
     0
  9
$USERR1
 40
0.0
  9
$USERR2
 40
0.0
  9
$USERR3
 40
0.0
  9
$USERR4
 40
0.0
  9
$USERR5
 40
0.0
  9
$WORLDVIEW
 70
     1
  9
$SHADEDGE
 70
     3
  9
$SHADEDIF
 70
    70
  9
$TILEMODE
 70
     1
  9
$MAXACTVP
 70
    16
  9
$PINSBASE
 10
0.0
 20
0.0
 30
0.0
  9
$PLIMCHECK
 70
     0
  9
$PEXTMIN
 10
1.000000E+20
 20
1.000000E+20
 30
1.000000E+20
  9
$PEXTMAX
 10
-1.000000E+20
 20
-1.000000E+20
 30
-1.000000E+20
  9
$PLIMMIN
 10
0.0
 20
0.0
  9
$PLIMMAX
 10
12.0
 20
9.0
  9
$UNITMODE
 70
     0
  9
$VISRETAIN
 70
     0
  0
ENDSEC
  0
SECTION
  2
TABLES
  0
TABLE
  2
LTYPE
 70
    1
  0
LTYPE
  2
CONTINUOUS
 70
    64
3
Solid line
 72
    65
 73
0
 40
0.000000
  0
ENDTAB
  0
TABLE
  2
LAYER
 70
    8
  0
LAYER
  2
0
 70
    64
 62
7
  6
CONTINUOUS
  0
LAYER
  2
1
 70
    64
 62
7
  6
CONTINUOUS
  0
LAYER
  2
7
 70
    64
 62
7
  6
CONTINUOUS
  0
LAYER
  2
8
 70
    64
 62
7
  6
CONTINUOUS
  0
LAYER
  2
9
 70
    64
 62
7
  6
CONTINUOUS
  0
LAYER
  2
22
 70
    64
 62
7
  6
CONTINUOUS
  0
LAYER
  2
25
 70
    64
 62
7
  6
CONTINUOUS
  0
LAYER
  2
0
 70
    64
 62
7
  6
CONTINUOUS
  0
ENDTAB
  0
TABLE
  2
STYLE
 70
    1
  0
STYLE
  2
ROMANC
70
     0
 40
0.0
 41
1.0
 50
0.0
 71
     0
 42
0.2
  3
ROMANC
  4

  0
ENDTAB
  0
ENDSEC
  0
SECTION
  2
BLOCKS
  0
ENDSEC
  0
SECTION
  2
ENTITIES
  0
TEXT
  8
0
  6
CONTINUOUS
 40
0.100000
 10
286.909000
 20
41.324000
  1
2
  7
ROMANC
  0
TEXT
  8
0
  6
CONTINUOUS
 40
0.300000
 10
283.926000
 20
41.768000
  1
ESCALA  1:50
  7
ROMANC
  0
POLYLINE
  8
0
  6
CONTINUOUS
 66
     1
 70
     1
  0
VERTEX
  8
0
  6
CONTINUOUS
 10
281.396000
 20
44.747000
  0
VERTEX
  8
0
  6
CONTINUOUS
 10
291.896000
 20
44.747000
  0
VERTEX
  8
0
  6
CONTINUOUS
 10
291.896000
 20
29.897000
  0
VERTEX
  8
0
  6
CONTINUOUS
 10
281.396000
 20
29.897000
  0
SEQEND
  8
0
  0
TEXT
  8
0
  6
CONTINUOUS
 40
0.300000
 10
283.926000
 20
42.381000
  1
TIPUS   T251B
  7
ROMANC
  0
ARC
  8
1
  6
CONTINUOUS
 10
286.239000
 20
33.452000
 40
0.800000
 50
0.000000
 51
180.000000
  0
LINE
  8
1
  6
CONTINUOUS
 10
285.439000
 20
32.652000
 11
285.439000
 21
33.452000
  0
TEXT
  8
0
  6
CONTINUOUS
 40
0.300000
 10
283.922000
 20
40.529000
  1
P = 62 dm
  7
ROMANC
  0
TEXT
  8
0
  6
CONTINUOUS
 40
0.300000
 10
283.945000
 20
41.099000
  1
S = 251 dm
  7
ROMANC
  0
LINE
  8
1
  6
CONTINUOUS
 10
285.889000
 20
32.652000
 11
285.439000
 21
32.652000
  0
TEXT
  8
1
  6
CONTINUOUS
 40
0.075000
 10
285.542000
 20
32.124000
  1
0.45
  7
ROMANC
  0
LINE
  8
1
  6
CONTINUOUS
 10
285.289000
 20
32.161000
 11
285.439000
 21
32.161000
  0
LINE
  8
1
  6
CONTINUOUS
 10
286.039000
 20
32.161000
 11
285.889000
 21
32.161000
  0
LINE
  8
1
  6
CONTINUOUS
 10
285.476000
 20
32.180000
 11
285.402000
 21
32.142000
  0
LINE
  8
1
  6
CONTINUOUS
 10
285.852000
 20
32.142000
 11
285.926000
 21
32.180000
  0
LINE
  8
1
  6
CONTINUOUS
 10
285.439000
 20
32.614000
 11
285.439000
 21
32.123000
  0
LINE
  8
1
  6
CONTINUOUS
 10
285.889000
 20
32.614000
 11
285.889000
 21
32.123000
  0
LINE
  8
1
  6
CONTINUOUS
 10
287.039000
 20
32.652000
 11
286.589000
 21
32.652000
  0
TEXT
  8
1
  6
CONTINUOUS
 40
0.075000
 10
286.692000
 20
32.124000
  1
0.45
  7
ROMANC
  0
LINE
  8
1
  6
CONTINUOUS
 10
286.439000
 20
32.161000
 11
286.589000
 21
32.161000
  0
LINE
  8
1
  6
CONTINUOUS
 10
287.189000
 20
32.161000
 11
287.039000
 21
32.161000
  0
LINE
  8
1
  6
CONTINUOUS
 10
286.626000
 20
32.180000
 11
286.552000
 21
32.142000
  0
LINE
  8
1
  6
CONTINUOUS
 10
287.002000
 20
32.142000
 11
287.076000
 21
32.180000
  0
LINE
  8
1
  6
CONTINUOUS
 10
286.589000
 20
32.614000
 11
286.589000
 21
32.123000
  0
LINE
  8
1
  6
CONTINUOUS
 10
287.039000
 20
32.614000
 11
287.039000
 21
32.123000
  0
ARC
  8
1
  6
CONTINUOUS
 10
286.239000
 20
32.605125
 40
0.353125
 50
172.371850
 51
367.628150
  0
TEXT
  8
1
  6
CONTINUOUS
 40
0.075000
 10
286.120000
 20
31.974000
  1
0.70
  7
ROMANC
  0
LINE
  8
1
  6
CONTINUOUS
 10
286.082000
 20
32.011000
 11
285.889000
 21
32.011000
  0
LINE
  8
1
  6
CONTINUOUS
 10
286.394000
 20
32.011000
 11
286.589000
 21
32.011000
  0
LINE
  8
1
  6
CONTINUOUS
 10
285.852000
 20
31.992000
 11
285.926000
 21
32.030000
  0
LINE
  8
1
  6
CONTINUOUS
 10
286.626000
 20
32.030000
 11
286.552000
 21
31.992000
  0
LINE
  8
1
  6
CONTINUOUS
 10
285.889000
 20
32.520000
 11
285.889000
 21
31.973000
  0
LINE
  8
1
  6
CONTINUOUS
 10
286.589000
 20
32.614000
 11
286.589000
 21
31.973000
  0
TEXT
  8
1
  6
CONTINUOUS
 40
0.075000
 10
286.129000
 20
31.772000
  1
1.60
  7
ROMANC
  0
LINE
  8
1
  6
CONTINUOUS
 10
286.091000
 20
31.810000
 11
285.439000
 21
31.810000
  0
LINE
  8
1
  6
CONTINUOUS
 10
286.386000
 20
31.810000
 11
287.039000
 21
31.810000
  0
LINE
  8
1
  6
CONTINUOUS
 10
285.402000
 20
31.791000
 11
285.476000
 21
31.829000
  0
LINE
  8
1
  6
CONTINUOUS
 10
287.076000
 20
31.829000
 11
287.002000
 21
31.791000
  0
LINE
  8
1
  6
CONTINUOUS
 10
285.439000
 20
32.614000
 11
285.439000
 21
31.772000
  0
LINE
  8
1
  6
CONTINUOUS
 10
287.039000
 20
32.614000
 11
287.039000
 21
31.772000
  0
TEXT
  8
1
  6
CONTINUOUS
 40
0.075000
 10
287.246000
 20
32.893000
  1
0.40
 50
90.000000
  7
ROMANC
  0
LINE
  8
1
  6
CONTINUOUS
 10
287.208000
 20
32.102000
 11
287.208000
 21
32.252000
  0
LINE
  8
1
  6
CONTINUOUS
 10
287.208000
 20
32.855000
 11
287.208000
 21
32.652000
  0
LINE
  8
1
  6
CONTINUOUS
 10
287.189000
 20
32.290000
 11
287.227000
 21
32.214000
  0
LINE
  8
1
  6
CONTINUOUS
 10
287.227000
 20
32.614000
 11
287.189000
 21
32.690000
  0
LINE
  8
1
  6
CONTINUOUS
 10
286.277000
 20
32.252000
 11
287.246000
 21
32.252000
  0
LINE
  8
1
  6
CONTINUOUS
 10
286.627000
 20
32.652000
 11
287.246000
 21
32.652000
  0
LINE
  8
1
  6
CONTINUOUS
 10
287.039000
 20
33.452000
 11
287.039000
 21
32.652000
  0
TEXT
  8
1
  6
CONTINUOUS
 40
0.075000
 10
287.430000
 20
32.933000
  1
0.80
 50
90.000000
  7
ROMANC
  0
LINE
  8
1
  6
CONTINUOUS
 10
287.393000
 20
32.895000
 11
287.393000
 21
32.652000
  0
LINE
  8
1
  6
CONTINUOUS
 10
287.393000
 20
33.207000
 11
287.393000
 21
33.452000
  0
LINE
  8
1
  6
CONTINUOUS
 10
287.412000
 20
32.614000
 11
287.374000
 21
32.690000
  0
LINE
  8
1
  6
CONTINUOUS
 10
287.374000
 20
33.490000
 11
287.412000
 21
33.414000
  0
LINE
  8
1
  6
CONTINUOUS
 10
287.077000
 20
32.652000
 11
287.431000
 21
32.652000
  0
LINE
  8
1
  6
CONTINUOUS
 10
287.077000
 20
33.452000
 11
287.431000
 21
33.452000
  0
TEXT
  8
1
  6
CONTINUOUS
 40
0.075000
 10
287.430000
 20
33.733000
  1
0.80
 50
90.000000
  7
ROMANC
  0
LINE
  8
1
  6
CONTINUOUS
 10
287.393000
 20
33.695000
 11
287.393000
 21
33.452000
  0
LINE
  8
1
  6
CONTINUOUS
 10
287.393000
 20
34.007000
 11
287.393000
 21
34.252000
  0
LINE
  8
1
  6
CONTINUOUS
 10
287.412000
 20
33.414000
 11
287.374000
 21
33.490000
  0
LINE
  8
1
  6
CONTINUOUS
 10
287.374000
 20
34.290000
 11
287.412000
 21
34.214000
  0
LINE
  8
1
  6
CONTINUOUS
 10
286.277000
 20
34.252000
 11
287.431000
 21
34.252000
  0
TEXT
  8
1
  6
CONTINUOUS
 40
0.075000
 10
287.628000
 20
33.133000
  1
2.00
 50
90.000000
  7
ROMANC
  0
LINE
  8
1
  6
CONTINUOUS
 10
287.590000
 20
33.095000
 11
287.590000
 21
32.252000
  0
LINE
  8
1
  6
CONTINUOUS
 10
287.590000
 20
33.407000
 11
287.590000
 21
34.252000
  0
LINE
  8
1
  6
CONTINUOUS
 10
287.609000
 20
32.214000
 11
287.571000
 21
32.290000
  0
LINE
  8
1
  6
CONTINUOUS
 10
287.571000
 20
34.290000
 11
287.609000
 21
34.214000
  0
LINE
  8
1
  6
CONTINUOUS
 10
286.277000
 20
32.252000
 11
287.628000
 21
32.252000
  0
LINE
  8
1
  6
CONTINUOUS
 10
286.277000
 20
34.252000
 11
287.628000
 21
34.252000
  0
LINE
  8
1
  6
CONTINUOUS
 10
285.429000
 20
32.642000
 11
285.429000
 21
33.452000
  0
LINE
  8
1
  6
CONTINUOUS
 10
285.419000
 20
32.632000
 11
285.419000
 21
33.452000
  0
LINE
  8
1
  6
CONTINUOUS
 10
285.878000
 20
32.642000
 11
285.429000
 21
32.642000
  0
LINE
  8
1
  6
CONTINUOUS
 10
285.867000
 20
32.632000
 11
285.419000
 21
32.632000
  0
ARC
  8
1
  6
CONTINUOUS
 10
286.239000
 20
32.605125
 40
0.363125
 50
174.171622
 51
365.828378
  0
ARC
  8
1
  6
CONTINUOUS
 10
286.239000
 20
32.605125
 40
0.373125
 50
175.869592
 51
364.130408
  0
LINE
  8
1
  6
CONTINUOUS
 10
287.049000
 20
32.642000
 11
286.600000
 21
32.642000
  0
LINE
  8
1
  6
CONTINUOUS
 10
287.059000
 20
32.632000
 11
286.611000
 21
32.632000
  0
LINE
  8
1
  6
CONTINUOUS
 10
287.049000
 20
33.452000
 11
287.049000
 21
32.642000
  0
LINE
  8
1
  6
CONTINUOUS
 10
287.059000
 20
33.452000
 11
287.059000
 21
32.632000
  0
ARC
  8
1
  6
CONTINUOUS
 10
286.239000
 20
33.452000
 40
0.810000
 50
0.000000
 51
180.000000
  0
ARC
  8
1
  6
CONTINUOUS
 10
286.239000
 20
33.452000
 40
0.820000
 50
0.000000
 51
180.000000
  0
ENDSEC
  0
EOF
