  0
SECTION
  2
HEADER
  9
$ACADVER
  1
AC1009
  9
$INSBASE
 10
142.882637
 20
63.538219
 30
0.0
  9
$EXTMIN
 10
142.882637
 20
63.538219
 30
0.0
  9
$EXTMAX
 10
153.382637
 20
78.388219
 30
0.0
  9
$LIMMIN
 10
0.0
 20
0.0
  9
$LIMMAX
 10
410.0
 20
287.0
  9
$ORTHOMODE
 70
     0
  9
$REGENMODE
 70
     1
  9
$FILLMODE
 70
     1
  9
$QTEXTMODE
 70
     0
  9
$MIRRTEXT
 70
     1
  9
$DRAGMODE
 70
     2
  9
$LTSCALE
 40
25.0
  9
$OSMODE
 70
    32
  9
$ATTMODE
 70
     1
  9
$TEXTSIZE
 40
0.1
  9
$TRACEWID
 40
1.0
  9
$TEXTSTYLE
  7
ROMANC
  9
$CLAYER
  8
0
  9
$CELTYPE
  6
BYLAYER
  9
$CECOLOR
 62
   256
  9
$DIMSCALE
 40
0.0
  9
$DIMASZ
 40
0.0
  9
$DIMEXO
 40
0.1
  9
$DIMDLI
 40
7.0
  9
$DIMRND
 40
0.0
  9
$DIMDLE
 40
0.0
  9
$DIMEXE
 40
1.0
  9
$DIMTP
 40
0.0
  9
$DIMTM
 40
0.0
  9
$DIMTXT
 40
0.075
  9
$DIMCEN
 40
0.05
  9
$DIMTSZ
 40
0.05
  9
$DIMTOL
 70
     0
  9
$DIMLIM
 70
     0
  9
$DIMTIH
 70
     0
  9
$DIMTOH
 70
     0
  9
$DIMSE1
 70
     0
  9
$DIMSE2
 70
     0
  9
$DIMTAD
 70
     0
  9
$DIMZIN
 70
     0
  9
$DIMBLK
  1

  9
$DIMASO
 70
     1
  9
$DIMSHO
 70
     0
  9
$DIMPOST
  1

  9
$DIMAPOST
  1

  9
$DIMALT
 70
     0
  9
$DIMALTD
 70
     2
  9
$DIMALTF
 40
25.4
  9
$DIMLFAC
 40
1.0
  9
$DIMTOFL
 70
     1
  9
$DIMTVP
 40
0.0
  9
$DIMTIX
 70
     1
  9
$DIMSOXD
 70
     0
  9
$DIMSAH
 70
     0
  9
$DIMBLK1
  1

  9
$DIMBLK2
  1

  9
$DIMSTYLE
  2
ANGELS
  9
$DIMCLRD
 70
     0
  9
$DIMCLRE
 70
     0
  9
$DIMCLRT
 70
     0
  9
$DIMTFAC
 40
46.666667
  9
$DIMGAP
 40
0.09
  9
$LUNITS
 70
     2
  9
$LUPREC
 70
     2
  9
$SKETCHINC
 40
1.0
  9
$FILLETRAD
 40
0.0
  9
$AUNITS
 70
     0
  9
$AUPREC
 70
     0
  9
$MENU
  1
acad
  9
$ELEVATION
 40
0.0
  9
$PELEVATION
 40
0.0
  9
$THICKNESS
 40
0.0
  9
$LIMCHECK
 70
     0
  9
$BLIPMODE
 70
     0
  9
$CHAMFERA
 40
0.0
  9
$CHAMFERB
 40
0.0
  9
$SKPOLY
 70
     0
  9
$TDCREATE
 40
2449965.404309375
  9
$TDUPDATE
 40
2450400.364169907
  9
$TDINDWG
 40
0.0012033565
  9
$TDUSRTIMER
 40
0.0012033565
  9
$USRTIMER
 70
     1
  9
$ANGBASE
 50
0.0
  9
$ANGDIR
 70
     0
  9
$PDMODE
 70
     0
  9
$PDSIZE
 40
0.0
  9
$PLINEWID
 40
0.0
  9
$COORDS
 70
     2
  9
$SPLFRAME
 70
     0
  9
$SPLINETYPE
 70
     6
  9
$SPLINESEGS
 70
     8
  9
$ATTDIA
 70
     0
  9
$ATTREQ
 70
     1
  9
$HANDLING
 70
     0
  9
$HANDSEED
  5
0
  9
$SURFTAB1
 70
     6
  9
$SURFTAB2
 70
     6
  9
$SURFTYPE
 70
     6
  9
$SURFU
 70
     6
  9
$SURFV
 70
     6
  9
$UCSNAME
  2

  9
$UCSORG
 10
0.0
 20
0.0
 30
0.0
  9
$UCSXDIR
 10
1.0
 20
0.0
 30
0.0
  9
$UCSYDIR
 10
0.0
 20
1.0
 30
0.0
  9
$PUCSNAME
  2

  9
$PUCSORG
 10
0.0
 20
0.0
 30
0.0
  9
$PUCSXDIR
 10
1.0
 20
0.0
 30
0.0
  9
$PUCSYDIR
 10
0.0
 20
1.0
 30
0.0
  9
$USERI1
 70
     0
  9
$USERI2
 70
     0
  9
$USERI3
 70
     0
  9
$USERI4
 70
     0
  9
$USERI5
 70
     0
  9
$USERR1
 40
0.0
  9
$USERR2
 40
0.0
  9
$USERR3
 40
0.0
  9
$USERR4
 40
0.0
  9
$USERR5
 40
0.0
  9
$WORLDVIEW
 70
     1
  9
$SHADEDGE
 70
     3
  9
$SHADEDIF
 70
    70
  9
$TILEMODE
 70
     1
  9
$MAXACTVP
 70
    16
  9
$PINSBASE
 10
0.0
 20
0.0
 30
0.0
  9
$PLIMCHECK
 70
     0
  9
$PEXTMIN
 10
1.000000E+20
 20
1.000000E+20
 30
1.000000E+20
  9
$PEXTMAX
 10
-1.000000E+20
 20
-1.000000E+20
 30
-1.000000E+20
  9
$PLIMMIN
 10
0.0
 20
0.0
  9
$PLIMMAX
 10
12.0
 20
9.0
  9
$UNITMODE
 70
     0
  9
$VISRETAIN
 70
     0
  9
$PLINEGEN
 70
     0
  9
$PSLTSCALE
 70
     0
  9
$TREEDEPTH
 70
  3020
  9
$DWGCODEPAGE
  3
iso8859-1
  0
ENDSEC
  0
SECTION
  2
TABLES
  0
TABLE
  2
VPORT
 70
     2
  0
VPORT
  2
*ACTIVE
 70
     0
 10
0.0
 20
0.0
 11
1.0
 21
1.0
 12
155.196975
 22
71.182017
 13
0.0
 23
0.0
 14
1.0
 24
1.0
 15
10.0
 25
10.0
 16
0.0
 26
0.0
 36
1.0
 17
0.0
 27
0.0
 37
0.0
 40
15.287595
 41
1.611024
 42
50.0
 43
0.0
 44
0.0
 50
0.0
 51
0.0
 71
     0
 72
   100
 73
     1
 74
     0
 75
     0
 76
     0
 77
     0
 78
     2
  0
ENDTAB
  0
TABLE
  2
LTYPE
 70
     1
  0
LTYPE
  2
CONTINUOUS
 70
    64
  3
Solid line
 72
    65
 73
     0
 40
0.0
  0
ENDTAB
  0
TABLE
  2
LAYER
 70
     3
  0
LAYER
  2
0
 70
    64
 62
     7
  6
CONTINUOUS
  0
LAYER
  2
MESURA
 70
    64
 62
     7
  6
CONTINUOUS
  0
LAYER
  2
DEFPOINTS
 70
    64
 62
     7
  6
CONTINUOUS
  0
ENDTAB
  0
TABLE
  2
STYLE
 70
     2
  0
STYLE
  2
STANDARD
 70
     0
 40
0.0
 41
1.0
 50
0.0
 71
     0
 42
0.1
  3
txt
  4

  0
STYLE
  2
ROMANC
 70
    64
 40
0.0
 41
1.0
 50
0.0
 71
     0
 42
0.1
  3
romanc
  4

  0
ENDTAB
  0
TABLE
  2
VIEW
 70
     0
  0
ENDTAB
  0
TABLE
  2
UCS
 70
     0
  0
ENDTAB
  0
TABLE
  2
APPID
 70
     1
  0
APPID
  2
ACAD
 70
    64
  0
ENDTAB
  0
TABLE
  2
DIMSTYLE
 70
     1
  0
DIMSTYLE
  2
ANGELS
 70
     0
  3

  4

  5

  6

  7

 40
0.0
 41
0.0
 42
0.1
 43
7.0
 44
1.0
 45
0.0
 46
0.0
 47
0.0
 48
0.0
140
0.075
141
0.05
142
0.05
143
25.4
144
1.0
145
0.0
146
46.666667
147
0.09
 71
     0
 72
     0
 73
     0
 74
     0
 75
     0
 76
     0
 77
     0
 78
     0
170
     0
171
     2
172
     1
173
     0
174
     1
175
     0
176
     0
177
     0
178
     0
  0
ENDTAB
  0
ENDSEC
  0
SECTION
  2
BLOCKS
  0
BLOCK
  8
0
  2
*D0
 70
    65
 10
0.0
 20
0.0
 30
0.0
  3
*D
  0
LINE
  8
0
  6
BYBLOCK
 62
     0
 10
149.448979
 20
69.774174
 30
0.0
 11
152.07681
 21
69.774174
 31
0.0
  0
LINE
  8
0
  6
BYBLOCK
 62
     0
 10
149.448979
 20
67.614174
 30
0.0
 11
152.07681
 21
67.614174
 31
0.0
  0
LINE
  8
0
  6
BYBLOCK
 62
     0
 10
150.27681
 20
69.774174
 30
0.0
 11
150.27681
 21
71.774174
 31
0.0
  0
LINE
  8
0
  6
BYBLOCK
 62
     0
 10
150.27681
 20
67.614174
 30
0.0
 11
150.27681
 21
65.614174
 31
0.0
  0
LINE
  8
0
  6
BYBLOCK
 62
     0
 10
151.27681
 20
68.774174
 30
0.0
 11
149.27681
 21
70.774174
 31
0.0
  0
LINE
  8
0
  6
BYBLOCK
 62
     0
 10
151.27681
 20
66.614174
 30
0.0
 11
149.27681
 21
68.614174
 31
0.0
  0
LINE
  8
0
  6
BYBLOCK
 62
     0
 10
150.27681
 20
69.774174
 30
0.0
 11
150.27681
 21
67.614174
 31
0.0
  0
TEXT
  8
0
  6
BYBLOCK
 62
     0
 10
150.29181
 20
68.644174
 30
0.0
 40
0.03
  1
2.16
 50
90.0
  7
ROMANC
 72
     1
 11
150.27681
 21
68.694174
 31
0.0
 73
     2
  0
POINT
  8
DEFPOINTS
  6
BYBLOCK
 62
     0
 10
149.348979
 20
69.774174
 30
0.0
  0
POINT
  8
DEFPOINTS
  6
BYBLOCK
 62
     0
 10
149.348979
 20
67.614174
 30
0.0
  0
POINT
  8
DEFPOINTS
  6
BYBLOCK
 62
     0
 10
150.27681
 20
67.614174
 30
0.0
  0
ENDBLK
  8
0
  0
BLOCK
  8
0
  2
*D1
 70
    65
 10
0.0
 20
0.0
 30
0.0
  3
*D
  0
LINE
  8
0
  6
BYBLOCK
 62
     0
 10
149.448979
 20
69.774174
 30
0.0
 11
151.312547
 21
69.774174
 31
0.0
  0
LINE
  8
0
  6
BYBLOCK
 62
     0
 10
149.448979
 20
67.614174
 30
0.0
 11
151.312547
 21
67.614174
 31
0.0
  0
LINE
  8
0
  6
BYBLOCK
 62
     0
 10
150.312547
 20
69.774174
 30
0.0
 11
150.312547
 21
68.89846
 31
0.0
  0
LINE
  8
0
  6
BYBLOCK
 62
     0
 10
150.312547
 20
67.614174
 30
0.0
 11
150.312547
 21
68.489889
 31
0.0
  0
LINE
  8
0
  6
BYBLOCK
 62
     0
 10
150.362547
 20
69.724174
 30
0.0
 11
150.262547
 21
69.824174
 31
0.0
  0
LINE
  8
0
  6
BYBLOCK
 62
     0
 10
150.362547
 20
67.564174
 30
0.0
 11
150.262547
 21
67.664174
 31
0.0
  0
TEXT
  8
0
  6
BYBLOCK
 62
     0
 10
150.350047
 20
68.569174
 30
0.0
 40
0.075
  1
2.16
 50
90.0
  7
ROMANC
 72
     1
 11
150.312547
 21
68.694174
 31
0.0
 73
     2
  0
POINT
  8
DEFPOINTS
  6
BYBLOCK
 62
     0
 10
149.348979
 20
69.774174
 30
0.0
  0
POINT
  8
DEFPOINTS
  6
BYBLOCK
 62
     0
 10
149.348979
 20
67.614174
 30
0.0
  0
POINT
  8
DEFPOINTS
  6
BYBLOCK
 62
     0
 10
150.312547
 20
67.614174
 30
0.0
  0
ENDBLK
  8
0
  0
ENDSEC
  0
SECTION
  2
ENTITIES
  0
LINE
  8
0
 10
153.382637
 20
63.538219
 30
0.0
 11
153.382637
 21
78.388219
 31
0.0
  0
LINE
  8
0
 10
148.082587
 20
67.614174
 30
0.0
 11
149.348979
 21
67.614174
 31
0.0
  0
LINE
  8
0
 10
148.729052
 20
67.931476
 30
0.0
 11
149.348979
 21
67.931476
 31
0.0
  0
LINE
  8
0
 10
148.082587
 20
69.774174
 30
0.0
 11
149.348979
 21
69.774174
 31
0.0
  0
LINE
  8
0
 10
148.797587
 20
68.914174
 30
0.0
 11
149.348979
 21
68.914174
 31
0.0
  0
LINE
  8
0
 10
142.882637
 20
63.538219
 30
0.0
 11
153.382637
 21
63.538219
 31
0.0
  0
POLYLINE
  8
0
 66
     1
 10
0.0
 20
0.0
 30
0.0
 70
     1
  0
VERTEX
  8
0
 10
148.3974
 20
67.924174
 30
0.0
  0
VERTEX
  8
0
 10
148.707587
 20
67.924174
 30
0.0
 42
0.352849
  0
VERTEX
  8
0
 10
148.71928
 20
67.933599
 30
0.0
 42
0.031059
  0
VERTEX
  8
0
 10
148.761267
 20
68.207964
 30
0.0
 42
0.013125
 70
     2
 50
84.857235
  0
VERTEX
  8
0
 10
148.779882
 20
68.50068
 30
0.0
 42
0.009316
 50
84.857235
  0
VERTEX
  8
0
 10
148.787587
 20
68.914174
 30
0.0
 42
0.083104
  0
VERTEX
  8
0
 10
148.731913
 20
69.246824
 30
0.0
 42
0.090732
  0
VERTEX
  8
0
 10
148.580479
 20
69.515893
 30
0.0
 42
0.10412
 70
     2
 50
129.739978
  0
VERTEX
  8
0
 10
148.34485
 20
69.70246
 30
0.0
 42
0.116072
 50
129.739978
  0
VERTEX
  8
0
 10
148.082587
 20
69.764174
 30
0.0
 42
0.116072
  0
VERTEX
  8
0
 10
147.820324
 20
69.70246
 30
0.0
 42
0.10412
  0
VERTEX
  8
0
 10
147.584695
 20
69.515893
 30
0.0
 42
0.090732
 70
     2
 50
230.260022
  0
VERTEX
  8
0
 10
147.433261
 20
69.246824
 30
0.0
 42
0.083104
 50
230.260022
  0
VERTEX
  8
0
 10
147.377587
 20
68.914174
 30
0.0
 42
0.009316
  0
VERTEX
  8
0
 10
147.385292
 20
68.50068
 30
0.0
 42
0.013125
  0
VERTEX
  8
0
 10
147.403907
 20
68.207964
 30
0.0
 42
0.031059
 70
     2
 50
275.142765
  0
VERTEX
  8
0
 10
147.445894
 20
67.933599
 30
0.0
 42
0.352849
 50
275.142765
  0
VERTEX
  8
0
 10
147.457587
 20
67.924174
 30
0.0
  0
VERTEX
  8
0
 10
147.767774
 20
67.924174
 30
0.0
 42
0.115304
  0
VERTEX
  8
0
 10
147.791033
 20
67.804654
 30
0.0
 42
0.101238
  0
VERTEX
  8
0
 10
147.85956
 20
67.70939
 30
0.0
 42
0.095342
 70
     2
 50
317.29061
  0
VERTEX
  8
0
 10
147.960604
 20
67.646699
 30
0.0
 42
0.091554
 50
317.29061
  0
VERTEX
  8
0
 10
148.082587
 20
67.624174
 30
0.0
 42
0.091554
  0
VERTEX
  8
0
 10
148.20457
 20
67.646699
 30
0.0
 42
0.095342
  0
VERTEX
  8
0
 10
148.305614
 20
67.70939
 30
0.0
 42
0.101238
 70
     2
 50
42.70939
  0
VERTEX
  8
0
 10
148.37414
 20
67.804654
 30
0.0
 42
0.115304
 50
42.70939
  0
SEQEND
  8
0
  0
POLYLINE
  8
0
 66
     1
 10
0.0
 20
0.0
 30
0.0
 70
     1
  0
VERTEX
  8
0
 10
148.417413
 20
67.904174
 30
0.0
  0
VERTEX
  8
0
 10
148.707587
 20
67.904174
 30
0.0
 42
0.352849
  0
VERTEX
  8
0
 10
148.738824
 20
67.929353
 30
0.0
 42
0.031059
  0
VERTEX
  8
0
 10
148.781186
 20
68.206171
 30
0.0
 42
0.013125
 70
     2
 50
84.857235
  0
VERTEX
  8
0
 10
148.799868
 20
68.499935
 30
0.0
 42
0.009316
 50
84.857235
  0
VERTEX
  8
0
 10
148.807587
 20
68.914174
 30
0.0
 42
0.083104
  0
VERTEX
  8
0
 10
148.750823
 20
69.253336
 30
0.0
 42
0.090732
  0
VERTEX
  8
0
 10
148.595858
 20
69.528679
 30
0.0
 42
0.10412
 70
     2
 50
129.739978
  0
VERTEX
  8
0
 10
148.353768
 20
69.720362
 30
0.0
 42
0.116072
 50
129.739978
  0
VERTEX
  8
0
 10
148.082587
 20
69.784174
 30
0.0
 42
0.116072
  0
VERTEX
  8
0
 10
147.811405
 20
69.720362
 30
0.0
 42
0.10412
  0
VERTEX
  8
0
 10
147.569316
 20
69.528679
 30
0.0
 42
0.090732
 70
     2
 50
230.260022
  0
VERTEX
  8
0
 10
147.414351
 20
69.253336
 30
0.0
 42
0.083104
 50
230.260022
  0
VERTEX
  8
0
 10
147.357587
 20
68.914174
 30
0.0
 42
0.009316
  0
VERTEX
  8
0
 10
147.365305
 20
68.499935
 30
0.0
 42
0.013125
  0
VERTEX
  8
0
 10
147.383988
 20
68.206171
 30
0.0
 42
0.031059
 70
     2
 50
275.142765
  0
VERTEX
  8
0
 10
147.42635
 20
67.929353
 30
0.0
 42
0.352849
 50
275.142765
  0
VERTEX
  8
0
 10
147.457587
 20
67.904174
 30
0.0
  0
VERTEX
  8
0
 10
147.747761
 20
67.904174
 30
0.0
 42
0.097056
  0
VERTEX
  8
0
 10
147.772786
 20
67.796466
 30
0.0
 42
0.101238
  0
VERTEX
  8
0
 10
147.845994
 20
67.694694
 30
0.0
 42
0.095342
 70
     2
 50
317.29061
  0
VERTEX
  8
0
 10
147.953461
 20
67.628018
 30
0.0
 42
0.091554
 50
317.29061
  0
VERTEX
  8
0
 10
148.082587
 20
67.604174
 30
0.0
 42
0.091554
  0
VERTEX
  8
0
 10
148.211713
 20
67.628018
 30
0.0
 42
0.095342
  0
VERTEX
  8
0
 10
148.319179
 20
67.694694
 30
0.0
 42
0.101238
 70
     2
 50
42.70939
  0
VERTEX
  8
0
 10
148.392388
 20
67.796466
 30
0.0
 42
0.097056
 50
42.70939
  0
SEQEND
  8
0
  0
POLYLINE
  8
0
 66
     1
 10
0.0
 20
0.0
 30
0.0
 70
     1
  0
VERTEX
  8
0
 10
148.407587
 20
67.914174
 30
0.0
  0
VERTEX
  8
0
 10
148.707587
 20
67.914174
 30
0.0
 42
0.352849
  0
VERTEX
  8
0
 10
148.729052
 20
67.931476
 30
0.0
 42
0.031059
  0
VERTEX
  8
0
 10
148.771227
 20
68.207067
 30
0.0
 42
0.013125
 70
     2
 50
84.857235
  0
VERTEX
  8
0
 10
148.789875
 20
68.500307
 30
0.0
 42
0.009316
 50
84.857235
  0
VERTEX
  8
0
 10
148.797587
 20
68.914174
 30
0.0
 42
0.083104
  0
VERTEX
  8
0
 10
148.741368
 20
69.25008
 30
0.0
 42
0.090732
  0
VERTEX
  8
0
 10
148.588168
 20
69.522286
 30
0.0
 42
0.10412
 70
     2
 50
129.739978
  0
VERTEX
  8
0
 10
148.349309
 20
69.711411
 30
0.0
 42
0.116072
 50
129.739978
  0
VERTEX
  8
0
 10
148.082587
 20
69.774174
 30
0.0
 42
0.116072
  0
VERTEX
  8
0
 10
147.815865
 20
69.711411
 30
0.0
 42
0.10412
  0
VERTEX
  8
0
 10
147.577006
 20
69.522286
 30
0.0
 42
0.090732
 70
     2
 50
230.260022
  0
VERTEX
  8
0
 10
147.423806
 20
69.25008
 30
0.0
 42
0.083104
 50
230.260022
  0
VERTEX
  8
0
 10
147.367587
 20
68.914174
 30
0.0
 42
0.009316
  0
VERTEX
  8
0
 10
147.375299
 20
68.500307
 30
0.0
 42
0.013125
  0
VERTEX
  8
0
 10
147.393947
 20
68.207067
 30
0.0
 42
0.031059
 70
     2
 50
275.142765
  0
VERTEX
  8
0
 10
147.436122
 20
67.931476
 30
0.0
 42
0.352849
 50
275.142765
  0
VERTEX
  8
0
 10
147.457587
 20
67.914174
 30
0.0
  0
VERTEX
  8
0
 10
147.757587
 20
67.914174
 30
0.0
 42
0.105842
  0
VERTEX
  8
0
 10
147.78191
 20
67.80056
 30
0.0
 42
0.101238
  0
VERTEX
  8
0
 10
147.852777
 20
67.702042
 30
0.0
 42
0.095342
 70
     2
 50
317.29061
  0
VERTEX
  8
0
 10
147.957032
 20
67.637359
 30
0.0
 42
0.091554
 50
317.29061
  0
VERTEX
  8
0
 10
148.082587
 20
67.614174
 30
0.0
 42
0.091554
  0
VERTEX
  8
0
 10
148.208142
 20
67.637359
 30
0.0
 42
0.095342
  0
VERTEX
  8
0
 10
148.312397
 20
67.702042
 30
0.0
 42
0.101238
 70
     2
 50
42.70939
  0
VERTEX
  8
0
 10
148.383264
 20
67.80056
 30
0.0
 42
0.105842
 50
42.70939
  0
SEQEND
  8
0
  0
LINE
  8
MESURA
  6
BYBLOCK
 62
     0
 10
148.307587
 20
67.38803
 30
0.0
 11
148.507587
 21
67.58803
 31
0.0
  0
LINE
  8
MESURA
  6
BYBLOCK
 62
     0
 10
147.657587
 20
67.38803
 30
0.0
 11
147.857587
 21
67.58803
 31
0.0
  0
LINE
  8
MESURA
  6
BYBLOCK
 62
     0
 10
147.357587
 20
67.114401
 30
0.0
 11
147.557587
 21
67.314401
 31
0.0
  0
LINE
  8
MESURA
  6
BYBLOCK
 62
     0
 10
148.607587
 20
67.114401
 30
0.0
 11
148.807587
 21
67.314401
 31
0.0
  0
LINE
  8
MESURA
  6
BYBLOCK
 62
     0
 10
148.697587
 20
70.205067
 30
0.0
 11
148.897587
 21
70.405067
 31
0.0
  0
TEXT
  8
0
 10
147.928895
 20
70.403753
 30
0.0
 40
0.1
  1
1.43
  7
ROMANC
  0
TEXT
  8
0
 10
147.91094
 20
66.958714
 30
0.0
 40
0.1
  1
1.25
  7
ROMANC
  0
TEXT
  8
0
 10
147.91094
 20
67.317572
 30
0.0
 40
0.1
  1
0.65
  7
ROMANC
  0
LINE
  8
0
 10
147.367587
 20
70.305067
 30
0.0
 11
148.797587
 21
70.305067
 31
0.0
  0
LINE
  8
0
 10
147.367587
 20
68.914174
 30
0.0
 11
147.367587
 21
70.305067
 31
0.0
  0
LINE
  8
0
 10
148.797587
 20
68.914174
 30
0.0
 11
148.797587
 21
70.305067
 31
0.0
  0
LINE
  8
0
 10
147.457587
 20
67.914174
 30
0.0
 11
147.457587
 21
67.214401
 31
0.0
  0
LINE
  8
0
 10
147.757587
 20
67.48803
 30
0.0
 11
148.407587
 21
67.48803
 31
0.0
  0
LINE
  8
0
 10
148.707587
 20
67.914174
 30
0.0
 11
148.707587
 21
67.214401
 31
0.0
  0
LINE
  8
0
 10
147.457587
 20
67.214401
 30
0.0
 11
148.707587
 21
67.214401
 31
0.0
  0
LINE
  8
0
 10
147.757587
 20
67.914174
 30
0.0
 11
147.757587
 21
67.48803
 31
0.0
  0
LINE
  8
0
 10
148.407587
 20
67.914174
 30
0.0
 11
148.407587
 21
67.48803
 31
0.0
  0
LINE
  8
MESURA
  6
BYBLOCK
 62
     0
 10
149.248979
 20
67.514174
 30
0.0
 11
149.448979
 21
67.714174
 31
0.0
  0
LINE
  8
MESURA
  6
BYBLOCK
 62
     0
 10
149.248979
 20
67.831476
 30
0.0
 11
149.448979
 21
68.031476
 31
0.0
  0
LINE
  8
MESURA
  6
BYBLOCK
 62
     0
 10
149.248979
 20
68.814174
 30
0.0
 11
149.448979
 21
69.014174
 31
0.0
  0
LINE
  8
MESURA
  6
BYBLOCK
 62
     0
 10
149.248979
 20
69.674174
 30
0.0
 11
149.448979
 21
69.874174
 31
0.0
  0
TEXT
  8
0
 10
149.517876
 20
67.712316
 30
0.0
 40
0.1
  1
0.3
  7
ROMANC
  0
TEXT
  8
0
 10
149.508898
 20
68.465919
 30
0.0
 40
0.1
  1
1.0
  7
ROMANC
  0
TEXT
  8
0
 10
149.490944
 20
69.282321
 30
0.0
 40
0.1
  1
0.86
  7
ROMANC
  0
LINE
  8
0
 10
149.348979
 20
69.774174
 30
0.0
 11
149.348979
 21
67.614174
 31
0.0
  0
LINE
  8
0
 10
153.382637
 20
78.388219
 30
0.0
 11
142.882637
 21
78.388219
 31
0.0
  0
TEXT
  8
0
 10
145.412609
 20
75.984079
 30
0.0
 40
0.3
  1
TIPUS   T251A
  7
ROMANC
  0
TEXT
  8
0
 10
145.406603
 20
74.414388
 30
0.0
 40
0.3
  1
P = 60.9 dm
  7
ROMANC
  0
TEXT
  8
0
 10
148.814808
 20
75.213086
 30
0.0
 40
0.1
  1
2
  7
ROMANC
  0
TEXT
  8
0
 10
145.425703
 20
74.899775
 30
0.0
 40
0.3
  1
S =  251 dm
  7
ROMANC
  0
TEXT
  8
0
 10
145.412609
 20
75.498364
 30
0.0
 40
0.3
  1
ESCALA  1:50
  7
ROMANC
  0
LINE
  8
0
 10
142.882637
 20
78.388219
 30
0.0
 11
142.882637
 21
63.538219
 31
0.0
  0
LINE
  8
0
  6
BYBLOCK
 62
     0
 10
149.448979
 20
69.774174
 30
0.0
 11
150.312547
 21
69.774174
 31
0.0
  0
LINE
  8
0
  6
BYBLOCK
 62
     0
 10
149.448979
 20
67.614174
 30
0.0
 11
150.312547
 21
67.614174
 31
0.0
  0
LINE
  8
0
  6
BYBLOCK
 62
     0
 10
150.312547
 20
67.614174
 30
0.0
 11
150.312547
 21
69.774174
 31
0.0
  0
LINE
  8
0
  6
BYBLOCK
 62
     0
 10
150.362547
 20
69.724174
 30
0.0
 11
150.262547
 21
69.824174
 31
0.0
  0
LINE
  8
0
  6
BYBLOCK
 62
     0
 10
150.362547
 20
67.564174
 30
0.0
 11
150.262547
 21
67.664174
 31
0.0
  0
POINT
  8
DEFPOINTS
  6
BYBLOCK
 62
     0
 10
149.348979
 20
69.774174
 30
0.0
  0
POINT
  8
DEFPOINTS
  6
BYBLOCK
 62
     0
 10
149.348979
 20
67.614174
 30
0.0
  0
POINT
  8
DEFPOINTS
  6
BYBLOCK
 62
     0
 10
150.312547
 20
67.614174
 30
0.0
  0
TEXT
  8
0
 10
150.495234
 20
68.665925
 30
0.0
 40
0.1
  1
2.16
  7
ROMANC
  0
ENDSEC
  0
EOF
