  0
SECTION
  2
HEADER
  9
$ACADVER
  1
AC1009
  9
$INSBASE
 10
0.0
 20
0.0
 30
0.0
  9
$EXTMIN
 10
281.396000
 20
29.897000
 30
-2147483.648000
  9
$EXTMAX
 10
291.896000
 20
44.747000
 30
0.000000
  9
$LIMMIN
 10
280.396000
 20
28.897000
  9
$LIMMAX
 10
292.896000
 20
43.747000
  9
$ORTHOMODE
 70
     0
  9
$REGENMODE
 70
     1
  9
$FILLMODE
 70
     1
  9
$QTEXTMODE
 70
     0
  9
$MIRRTEXT
 70
     1
  9
$DRAGMODE
 70
     2
  9
$LTSCALE
 40
1.0
  9
$OSMODE
 70
     0
  9
$ATTMODE
 70
     1
  9
$TEXTSIZE
 40
0.2
  9
$TRACEWID
 40
0.05
  9
$TEXTSTYLE
  7
STANDARD
  9
$CLAYER
  8
0
  9
$CELTYPE
  6
BYLAYER
  9
$CECOLOR
 62
   256
  9
$DIMSCALE
 40
1.0
  9
$DIMASZ
 40
0.18
  9
$DIMEXO
 40
0.0625
  9
$DIMDLI
 40
0.38
  9
$DIMRND
 40
0.0
  9
$DIMDLE
 40
0.0
  9
$DIMEXE
 40
0.18
  9
$DIMTP
 40
0.0
  9
$DIMTM
 40
0.0
  9
$DIMTXT
 40
0.18
  9
$DIMCEN
 40
0.09
  9
$DIMTSZ
 40
0.0
  9
$DIMTOL
 70
     0
  9
$DIMLIM
 70
     0
  9
$DIMTIH
 70
     1
  9
$DIMTOH
 70
     1
  9
$DIMSE1
 70
     0
  9
$DIMSE2
 70
     0
  9
$DIMTAD
 70
     0
  9
$DIMZIN
 70
     0
  9
$DIMBLK
  1

  9
$DIMASO
 70
     1
  9
$DIMSHO
 70
     1
  9
$DIMPOST
  1

  9
$DIMAPOST
  1

  9
$DIMALT
 70
     0
  9
$DIMALTD
 70
     2
  9
$DIMALTF
 40
25.4
  9
$DIMLFAC
 40
1.0
  9
$DIMTOFL
 70
     0
  9
$DIMTVP
 40
0.0
  9
$DIMTIX
 70
     0
  9
$DIMSOXD
 70
     0
  9
$DIMSAH
 70
     0
  9
$DIMBLK1
  1

  9
$DIMBLK2
  1

  9
$DIMSTYLE
  2
*UNNAMED
  9
$DIMCLRD
 70
     0
  9
$DIMCLRE
 70
     0
  9
$DIMCLRT
 70
     0
  9
$DIMTFAC
 40
1.0
  9
$DIMGAP
 40
0.09
  9
$LUNITS
 70
     2
  9
$LUPREC
 70
     4
  9
$AXISMODE
 70
     0
  9
$AXISUNIT
 10
0.0
 20
0.0
  9
$SKETCHINC
 40
0.1
  9
$FILLETRAD
 40
0.0
  9
$AUNITS
 70
     0
  9
$AUPREC
 70
     0
  9
$MENU
  1
acad
  9
$ELEVATION
 40
0.0
  9
$PELEVATION
 40
0.0
  9
$THICKNESS
 40
0.0
  9
$LIMCHECK
 70
     0
  9
$BLIPMODE
 70
     1
  9
$CHAMFERA
 40
0.0
  9
$CHAMFERB
 40
0.0
  9
$SKPOLY
 70
     0
  9
$TDCREATE
 40
2448315.373408102
  9
$TDUPDATE
 40
2448315.373408102
  9
$TDINDWG
 40
0.0000000000
  9
$TDUSRTIMER
 40
0.0000000000
  9
$USRTIMER
 70
     1
  9
$ANGBASE
 50
0.0
  9
$ANGDIR
 70
     0
  9
$PDMODE
 70
     0
  9
$PDSIZE
 40
0.0
  9
$PLINEWID
 40
0.0
  9
$COORDS
 70
     0
  9
$SPLFRAME
 70
     0
  9
$SPLINETYPE
 70
     6
  9
$SPLINESEGS
 70
     8
  9
$ATTDIA
 70
     0
  9
$ATTREQ
 70
     1
  9
$HANDLING
 70
     0
  9
$HANDSEED
  5
0
  9
$SURFTAB1
 70
     6
  9
$SURFTAB2
 70
     6
  9
$SURFTYPE
 70
     6
  9
$SURFU
 70
     6
  9
$SURFV
 70
     6
  9
$UCSNAME
  2

  9
$UCSORG
 10
0.0
 20
0.0
 30
0.0
  9
$UCSXDIR
 10
1.0
 20
0.0
 30
0.0
  9
$UCSYDIR
 10
0.0
 20
1.0
 30
0.0
  9
$PUCSNAME
  2

  9
$PUCSORG
 10
0.0
 20
0.0
 30
0.0
  9
$PUCSXDIR
 10
1.0
 20
0.0
 30
0.0
  9
$PUCSYDIR
 10
0.0
 20
1.0
 30
0.0
  9
$USERI1
 70
     0
  9
$USERI2
 70
     0
  9
$USERI3
 70
     0
  9
$USERI4
 70
     0
  9
$USERI5
 70
     0
  9
$USERR1
 40
0.0
  9
$USERR2
 40
0.0
  9
$USERR3
 40
0.0
  9
$USERR4
 40
0.0
  9
$USERR5
 40
0.0
  9
$WORLDVIEW
 70
     1
  9
$SHADEDGE
 70
     3
  9
$SHADEDIF
 70
    70
  9
$TILEMODE
 70
     1
  9
$MAXACTVP
 70
    16
  9
$PINSBASE
 10
0.0
 20
0.0
 30
0.0
  9
$PLIMCHECK
 70
     0
  9
$PEXTMIN
 10
1.000000E+20
 20
1.000000E+20
 30
1.000000E+20
  9
$PEXTMAX
 10
-1.000000E+20
 20
-1.000000E+20
 30
-1.000000E+20
  9
$PLIMMIN
 10
0.0
 20
0.0
  9
$PLIMMAX
 10
12.0
 20
9.0
  9
$UNITMODE
 70
     0
  9
$VISRETAIN
 70
     0
  0
ENDSEC
  0
SECTION
  2
TABLES
  0
TABLE
  2
LTYPE
 70
    1
  0
LTYPE
  2
CONTINUOUS
 70
    64
3
Solid line
 72
    65
 73
0
 40
0.000000
  0
ENDTAB
  0
TABLE
  2
LAYER
 70
    8
  0
LAYER
  2
0
 70
    64
 62
7
  6
CONTINUOUS
  0
LAYER
  2
1
 70
    64
 62
7
  6
CONTINUOUS
  0
LAYER
  2
7
 70
    64
 62
7
  6
CONTINUOUS
  0
LAYER
  2
8
 70
    64
 62
7
  6
CONTINUOUS
  0
LAYER
  2
9
 70
    64
 62
7
  6
CONTINUOUS
  0
LAYER
  2
22
 70
    64
 62
7
  6
CONTINUOUS
  0
LAYER
  2
25
 70
    64
 62
7
  6
CONTINUOUS
  0
LAYER
  2
0
 70
    64
 62
7
  6
CONTINUOUS
  0
ENDTAB
  0
TABLE
  2
STYLE
 70
    1
  0
STYLE
  2
ROMANC
70
     0
 40
0.0
 41
1.0
 50
0.0
 71
     0
 42
0.2
  3
ROMANC
  4

  0
ENDTAB
  0
ENDSEC
  0
SECTION
  2
BLOCKS
  0
ENDSEC
  0
SECTION
  2
ENTITIES
  0
TEXT
  8
0
  6
CONTINUOUS
 40
0.100000
 10
286.909000
 20
41.324000
  1
2
  7
ROMANC
  0
TEXT
  8
0
  6
CONTINUOUS
 40
0.300000
 10
283.926000
 20
41.768000
  1
ESCALA  1:50
  7
ROMANC
  0
POLYLINE
  8
0
  6
CONTINUOUS
 66
     1
 70
     1
  0
VERTEX
  8
0
  6
CONTINUOUS
 10
281.396000
 20
44.747000
  0
VERTEX
  8
0
  6
CONTINUOUS
 10
291.896000
 20
44.747000
  0
VERTEX
  8
0
  6
CONTINUOUS
 10
291.896000
 20
29.897000
  0
VERTEX
  8
0
  6
CONTINUOUS
 10
281.396000
 20
29.897000
  0
SEQEND
  8
0
  0
TEXT
  8
0
  6
CONTINUOUS
 40
0.300000
 10
283.926000
 20
42.381000
  1
TIPUS   T238B
  7
ROMANC
  0
LINE
  8
1
  6
CONTINUOUS
 10
285.940000
 20
32.434000
 11
285.865000
 21
33.534000
  0
TEXT
  8
0
  6
CONTINUOUS
 40
0.300000
 10
283.922000
 20
40.529000
  1
P = 61 dm
  7
ROMANC
  0
TEXT
  8
0
  6
CONTINUOUS
 40
0.300000
 10
283.945000
 20
41.099000
  1
S = 238 dm
  7
ROMANC
  0
LINE
  8
1
  6
CONTINUOUS
 10
286.190000
 20
32.434000
 11
285.940000
 21
32.434000
  0
TEXT
  8
1
  6
CONTINUOUS
 40
0.075000
 10
285.516000
 20
31.856000
  1
0.25
  7
ROMANC
  0
LINE
  8
1
  6
CONTINUOUS
 10
285.866000
 20
31.894000
 11
285.940000
 21
31.894000
  0
LINE
  8
1
  6
CONTINUOUS
 10
286.340000
 20
31.894000
 11
286.190000
 21
31.894000
  0
LINE
  8
1
  6
CONTINUOUS
 10
285.978000
 20
31.913000
 11
285.902000
 21
31.875000
  0
LINE
  8
1
  6
CONTINUOUS
 10
286.152000
 20
31.875000
 11
286.228000
 21
31.913000
  0
LINE
  8
1
  6
CONTINUOUS
 10
285.940000
 20
32.396000
 11
285.940000
 21
31.856000
  0
LINE
  8
1
  6
CONTINUOUS
 10
286.190000
 20
32.396000
 11
286.190000
 21
31.856000
  0
LINE
  8
1
  6
CONTINUOUS
 10
287.140000
 20
32.434000
 11
286.890000
 21
32.434000
  0
TEXT
  8
1
  6
CONTINUOUS
 40
0.075000
 10
287.287000
 20
31.856000
  1
0.25
  7
ROMANC
  0
LINE
  8
1
  6
CONTINUOUS
 10
286.740000
 20
31.894000
 11
286.890000
 21
31.894000
  0
LINE
  8
1
  6
CONTINUOUS
 10
287.249000
 20
31.894000
 11
287.140000
 21
31.894000
  0
LINE
  8
1
  6
CONTINUOUS
 10
286.928000
 20
31.913000
 11
286.852000
 21
31.875000
  0
LINE
  8
1
  6
CONTINUOUS
 10
287.102000
 20
31.875000
 11
287.178000
 21
31.913000
  0
LINE
  8
1
  6
CONTINUOUS
 10
286.890000
 20
32.396000
 11
286.890000
 21
31.856000
  0
LINE
  8
1
  6
CONTINUOUS
 10
287.140000
 20
32.396000
 11
287.140000
 21
31.856000
  0
ARC
  8
1
  6
CONTINUOUS
 10
286.540000
 20
32.387125
 40
0.353125
 50
172.371850
 51
367.628150
  0
TEXT
  8
1
  6
CONTINUOUS
 40
0.075000
 10
286.421000
 20
31.750000
  1
0.70
  7
ROMANC
  0
LINE
  8
1
  6
CONTINUOUS
 10
286.383000
 20
31.788000
 11
286.190000
 21
31.788000
  0
LINE
  8
1
  6
CONTINUOUS
 10
286.695000
 20
31.788000
 11
286.890000
 21
31.788000
  0
LINE
  8
1
  6
CONTINUOUS
 10
286.152000
 20
31.769000
 11
286.228000
 21
31.807000
  0
LINE
  8
1
  6
CONTINUOUS
 10
286.928000
 20
31.807000
 11
286.852000
 21
31.769000
  0
LINE
  8
1
  6
CONTINUOUS
 10
286.190000
 20
32.302000
 11
286.190000
 21
31.750000
  0
LINE
  8
1
  6
CONTINUOUS
 10
286.890000
 20
32.396000
 11
286.890000
 21
31.750000
  0
TEXT
  8
1
  6
CONTINUOUS
 40
0.075000
 10
286.430000
 20
31.594000
  1
1.20
  7
ROMANC
  0
LINE
  8
1
  6
CONTINUOUS
 10
286.392000
 20
31.632000
 11
285.940000
 21
31.632000
  0
LINE
  8
1
  6
CONTINUOUS
 10
286.687000
 20
31.632000
 11
287.140000
 21
31.632000
  0
LINE
  8
1
  6
CONTINUOUS
 10
285.902000
 20
31.613000
 11
285.978000
 21
31.651000
  0
LINE
  8
1
  6
CONTINUOUS
 10
287.178000
 20
31.651000
 11
287.102000
 21
31.613000
  0
LINE
  8
1
  6
CONTINUOUS
 10
285.940000
 20
32.396000
 11
285.940000
 21
31.594000
  0
LINE
  8
1
  6
CONTINUOUS
 10
287.140000
 20
32.396000
 11
287.140000
 21
31.594000
  0
TEXT
  8
1
  6
CONTINUOUS
 40
0.075000
 10
287.302000
 20
32.112000
  1
0.40
 50
90.000000
  7
ROMANC
  0
LINE
  8
1
  6
CONTINUOUS
 10
287.265000
 20
31.884000
 11
287.265000
 21
32.034000
  0
LINE
  8
1
  6
CONTINUOUS
 10
287.265000
 20
32.584000
 11
287.265000
 21
32.434000
  0
LINE
  8
1
  6
CONTINUOUS
 10
287.246000
 20
32.072000
 11
287.284000
 21
31.996000
  0
LINE
  8
1
  6
CONTINUOUS
 10
287.284000
 20
32.396000
 11
287.246000
 21
32.472000
  0
LINE
  8
1
  6
CONTINUOUS
 10
286.578000
 20
32.034000
 11
287.303000
 21
32.034000
  0
LINE
  8
1
  6
CONTINUOUS
 10
286.928000
 20
32.434000
 11
287.303000
 21
32.434000
  0
LINE
  8
1
  6
CONTINUOUS
 10
287.215000
 20
33.534000
 11
287.140000
 21
32.434000
  0
TEXT
  8
1
  6
CONTINUOUS
 40
0.075000
 10
287.452000
 20
32.883000
  1
1.10
 50
90.000000
  7
ROMANC
  0
LINE
  8
1
  6
CONTINUOUS
 10
287.415000
 20
32.845000
 11
287.415000
 21
32.434000
  0
LINE
  8
1
  6
CONTINUOUS
 10
287.415000
 20
33.122000
 11
287.415000
 21
33.534000
  0
LINE
  8
1
  6
CONTINUOUS
 10
287.434000
 20
32.396000
 11
287.396000
 21
32.472000
  0
LINE
  8
1
  6
CONTINUOUS
 10
287.396000
 20
33.572000
 11
287.434000
 21
33.496000
  0
LINE
  8
1
  6
CONTINUOUS
 10
287.178000
 20
32.434000
 11
287.453000
 21
32.434000
  0
LINE
  8
1
  6
CONTINUOUS
 10
287.253000
 20
33.534000
 11
287.453000
 21
33.534000
  0
TEXT
  8
1
  6
CONTINUOUS
 40
0.075000
 10
287.452000
 20
33.765000
  1
0.70
 50
90.000000
  7
ROMANC
  0
LINE
  8
1
  6
CONTINUOUS
 10
287.415000
 20
33.727000
 11
287.415000
 21
33.534000
  0
LINE
  8
1
  6
CONTINUOUS
 10
287.415000
 20
34.039000
 11
287.415000
 21
34.234000
  0
LINE
  8
1
  6
CONTINUOUS
 10
287.434000
 20
33.496000
 11
287.396000
 21
33.572000
  0
LINE
  8
1
  6
CONTINUOUS
 10
287.396000
 20
34.272000
 11
287.434000
 21
34.196000
  0
LINE
  8
1
  6
CONTINUOUS
 10
286.578000
 20
34.234000
 11
287.453000
 21
34.234000
  0
TEXT
  8
1
  6
CONTINUOUS
 40
0.075000
 10
287.670000
 20
33.015000
  1
2.20
 50
90.000000
  7
ROMANC
  0
LINE
  8
1
  6
CONTINUOUS
 10
287.633000
 20
32.977000
 11
287.633000
 21
32.034000
  0
LINE
  8
1
  6
CONTINUOUS
 10
287.633000
 20
33.289000
 11
287.633000
 21
34.234000
  0
LINE
  8
1
  6
CONTINUOUS
 10
287.652000
 20
31.996000
 11
287.614000
 21
32.072000
  0
LINE
  8
1
  6
CONTINUOUS
 10
287.614000
 20
34.272000
 11
287.652000
 21
34.196000
  0
LINE
  8
1
  6
CONTINUOUS
 10
286.578000
 20
32.034000
 11
287.671000
 21
32.034000
  0
LINE
  8
1
  6
CONTINUOUS
 10
286.578000
 20
34.234000
 11
287.671000
 21
34.234000
  0
LINE
  8
1
  6
CONTINUOUS
 10
285.931000
 20
32.424000
 11
285.855000
 21
33.533000
  0
LINE
  8
1
  6
CONTINUOUS
 10
285.921000
 20
32.414000
 11
285.845000
 21
33.532000
  0
ARC
  8
1
  6
CONTINUOUS
 10
286.540000
 20
33.558554
 40
0.685446
 50
-2.083253
 51
182.083253
  0
ARC
  8
1
  6
CONTINUOUS
 10
286.540000
 20
33.558554
 40
0.695446
 50
-2.083253
 51
182.083253
  0
LINE
  8
1
  6
CONTINUOUS
 10
287.224000
 20
33.533000
 11
287.148000
 21
32.424000
  0
LINE
  8
1
  6
CONTINUOUS
 10
287.234000
 20
33.532000
 11
287.158000
 21
32.414000
  0
LINE
  8
1
  6
CONTINUOUS
 10
287.148000
 20
32.424000
 11
286.901000
 21
32.424000
  0
LINE
  8
1
  6
CONTINUOUS
 10
287.158000
 20
32.414000
 11
286.912000
 21
32.414000
  0
ARC
  8
1
  6
CONTINUOUS
 10
286.540000
 20
32.387125
 40
0.363125
 50
174.171622
 51
365.828378
  0
ARC
  8
1
  6
CONTINUOUS
 10
286.540000
 20
32.387125
 40
0.373125
 50
175.869592
 51
364.130408
  0
LINE
  8
1
  6
CONTINUOUS
 10
286.179000
 20
32.424000
 11
285.931000
 21
32.424000
  0
LINE
  8
1
  6
CONTINUOUS
 10
286.168000
 20
32.414000
 11
285.921000
 21
32.414000
  0
ARC
  8
1
  6
CONTINUOUS
 10
286.540000
 20
33.558554
 40
0.675446
 50
-2.083253
 51
182.083253
  0
TEXT
  8
1
  6
CONTINUOUS
 40
0.075000
 10
286.430000
 20
34.398000
  1
1.35
  7
ROMANC
  0
LINE
  8
1
  6
CONTINUOUS
 10
286.392000
 20
34.435000
 11
285.865000
 21
34.435000
  0
LINE
  8
1
  6
CONTINUOUS
 10
286.687000
 20
34.435000
 11
287.215000
 21
34.435000
  0
LINE
  8
1
  6
CONTINUOUS
 10
285.828000
 20
34.416000
 11
285.902000
 21
34.454000
  0
LINE
  8
1
  6
CONTINUOUS
 10
287.252000
 20
34.454000
 11
287.178000
 21
34.416000
  0
LINE
  8
1
  6
CONTINUOUS
 10
285.865000
 20
33.572000
 11
285.865000
 21
34.473000
  0
LINE
  8
1
  6
CONTINUOUS
 10
287.215000
 20
33.572000
 11
287.215000
 21
34.473000
  0
ENDSEC
  0
EOF
