  0
SECTION
  2
HEADER
  9
$ACADVER
  1
AC1009
  9
$INSBASE
 10
0.0
 20
0.0
 30
0.0
  9
$EXTMIN
 10
281.396000
 20
29.897000
 30
-2147483.648000
  9
$EXTMAX
 10
291.896000
 20
44.747000
 30
0.000000
  9
$LIMMIN
 10
280.396000
 20
28.897000
  9
$LIMMAX
 10
292.896000
 20
43.747000
  9
$ORTHOMODE
 70
     0
  9
$REGENMODE
 70
     1
  9
$FILLMODE
 70
     1
  9
$QTEXTMODE
 70
     0
  9
$MIRRTEXT
 70
     1
  9
$DRAGMODE
 70
     2
  9
$LTSCALE
 40
1.0
  9
$OSMODE
 70
     0
  9
$ATTMODE
 70
     1
  9
$TEXTSIZE
 40
0.2
  9
$TRACEWID
 40
0.05
  9
$TEXTSTYLE
  7
STANDARD
  9
$CLAYER
  8
0
  9
$CELTYPE
  6
BYLAYER
  9
$CECOLOR
 62
   256
  9
$DIMSCALE
 40
1.0
  9
$DIMASZ
 40
0.18
  9
$DIMEXO
 40
0.0625
  9
$DIMDLI
 40
0.38
  9
$DIMRND
 40
0.0
  9
$DIMDLE
 40
0.0
  9
$DIMEXE
 40
0.18
  9
$DIMTP
 40
0.0
  9
$DIMTM
 40
0.0
  9
$DIMTXT
 40
0.18
  9
$DIMCEN
 40
0.09
  9
$DIMTSZ
 40
0.0
  9
$DIMTOL
 70
     0
  9
$DIMLIM
 70
     0
  9
$DIMTIH
 70
     1
  9
$DIMTOH
 70
     1
  9
$DIMSE1
 70
     0
  9
$DIMSE2
 70
     0
  9
$DIMTAD
 70
     0
  9
$DIMZIN
 70
     0
  9
$DIMBLK
  1

  9
$DIMASO
 70
     1
  9
$DIMSHO
 70
     1
  9
$DIMPOST
  1

  9
$DIMAPOST
  1

  9
$DIMALT
 70
     0
  9
$DIMALTD
 70
     2
  9
$DIMALTF
 40
25.4
  9
$DIMLFAC
 40
1.0
  9
$DIMTOFL
 70
     0
  9
$DIMTVP
 40
0.0
  9
$DIMTIX
 70
     0
  9
$DIMSOXD
 70
     0
  9
$DIMSAH
 70
     0
  9
$DIMBLK1
  1

  9
$DIMBLK2
  1

  9
$DIMSTYLE
  2
*UNNAMED
  9
$DIMCLRD
 70
     0
  9
$DIMCLRE
 70
     0
  9
$DIMCLRT
 70
     0
  9
$DIMTFAC
 40
1.0
  9
$DIMGAP
 40
0.09
  9
$LUNITS
 70
     2
  9
$LUPREC
 70
     4
  9
$AXISMODE
 70
     0
  9
$AXISUNIT
 10
0.0
 20
0.0
  9
$SKETCHINC
 40
0.1
  9
$FILLETRAD
 40
0.0
  9
$AUNITS
 70
     0
  9
$AUPREC
 70
     0
  9
$MENU
  1
acad
  9
$ELEVATION
 40
0.0
  9
$PELEVATION
 40
0.0
  9
$THICKNESS
 40
0.0
  9
$LIMCHECK
 70
     0
  9
$BLIPMODE
 70
     1
  9
$CHAMFERA
 40
0.0
  9
$CHAMFERB
 40
0.0
  9
$SKPOLY
 70
     0
  9
$TDCREATE
 40
2448315.373408102
  9
$TDUPDATE
 40
2448315.373408102
  9
$TDINDWG
 40
0.0000000000
  9
$TDUSRTIMER
 40
0.0000000000
  9
$USRTIMER
 70
     1
  9
$ANGBASE
 50
0.0
  9
$ANGDIR
 70
     0
  9
$PDMODE
 70
     0
  9
$PDSIZE
 40
0.0
  9
$PLINEWID
 40
0.0
  9
$COORDS
 70
     0
  9
$SPLFRAME
 70
     0
  9
$SPLINETYPE
 70
     6
  9
$SPLINESEGS
 70
     8
  9
$ATTDIA
 70
     0
  9
$ATTREQ
 70
     1
  9
$HANDLING
 70
     0
  9
$HANDSEED
  5
0
  9
$SURFTAB1
 70
     6
  9
$SURFTAB2
 70
     6
  9
$SURFTYPE
 70
     6
  9
$SURFU
 70
     6
  9
$SURFV
 70
     6
  9
$UCSNAME
  2

  9
$UCSORG
 10
0.0
 20
0.0
 30
0.0
  9
$UCSXDIR
 10
1.0
 20
0.0
 30
0.0
  9
$UCSYDIR
 10
0.0
 20
1.0
 30
0.0
  9
$PUCSNAME
  2

  9
$PUCSORG
 10
0.0
 20
0.0
 30
0.0
  9
$PUCSXDIR
 10
1.0
 20
0.0
 30
0.0
  9
$PUCSYDIR
 10
0.0
 20
1.0
 30
0.0
  9
$USERI1
 70
     0
  9
$USERI2
 70
     0
  9
$USERI3
 70
     0
  9
$USERI4
 70
     0
  9
$USERI5
 70
     0
  9
$USERR1
 40
0.0
  9
$USERR2
 40
0.0
  9
$USERR3
 40
0.0
  9
$USERR4
 40
0.0
  9
$USERR5
 40
0.0
  9
$WORLDVIEW
 70
     1
  9
$SHADEDGE
 70
     3
  9
$SHADEDIF
 70
    70
  9
$TILEMODE
 70
     1
  9
$MAXACTVP
 70
    16
  9
$PINSBASE
 10
0.0
 20
0.0
 30
0.0
  9
$PLIMCHECK
 70
     0
  9
$PEXTMIN
 10
1.000000E+20
 20
1.000000E+20
 30
1.000000E+20
  9
$PEXTMAX
 10
-1.000000E+20
 20
-1.000000E+20
 30
-1.000000E+20
  9
$PLIMMIN
 10
0.0
 20
0.0
  9
$PLIMMAX
 10
12.0
 20
9.0
  9
$UNITMODE
 70
     0
  9
$VISRETAIN
 70
     0
  0
ENDSEC
  0
SECTION
  2
TABLES
  0
TABLE
  2
LTYPE
 70
    1
  0
LTYPE
  2
CONTINUOUS
 70
    64
3
Solid line
 72
    65
 73
0
 40
0.000000
  0
ENDTAB
  0
TABLE
  2
LAYER
 70
    8
  0
LAYER
  2
0
 70
    64
 62
7
  6
CONTINUOUS
  0
LAYER
  2
1
 70
    64
 62
7
  6
CONTINUOUS
  0
LAYER
  2
7
 70
    64
 62
7
  6
CONTINUOUS
  0
LAYER
  2
8
 70
    64
 62
7
  6
CONTINUOUS
  0
LAYER
  2
9
 70
    64
 62
7
  6
CONTINUOUS
  0
LAYER
  2
22
 70
    64
 62
7
  6
CONTINUOUS
  0
LAYER
  2
25
 70
    64
 62
7
  6
CONTINUOUS
  0
LAYER
  2
0
 70
    64
 62
7
  6
CONTINUOUS
  0
ENDTAB
  0
TABLE
  2
STYLE
 70
    1
  0
STYLE
  2
ROMANC
70
     0
 40
0.0
 41
1.0
 50
0.0
 71
     0
 42
0.2
  3
ROMANC
  4

  0
ENDTAB
  0
ENDSEC
  0
SECTION
  2
BLOCKS
  0
ENDSEC
  0
SECTION
  2
ENTITIES
  0
TEXT
  8
0
  6
CONTINUOUS
 40
0.100000
 10
286.909000
 20
41.324000
  1
2
  7
ROMANC
  0
TEXT
  8
0
  6
CONTINUOUS
 40
0.300000
 10
283.926000
 20
41.768000
  1
ESCALA  1:50
  7
ROMANC
  0
POLYLINE
  8
0
  6
CONTINUOUS
 66
     1
 70
     1
  0
VERTEX
  8
0
  6
CONTINUOUS
 10
281.396000
 20
44.747000
  0
VERTEX
  8
0
  6
CONTINUOUS
 10
291.896000
 20
44.747000
  0
VERTEX
  8
0
  6
CONTINUOUS
 10
291.896000
 20
29.897000
  0
VERTEX
  8
0
  6
CONTINUOUS
 10
281.396000
 20
29.897000
  0
SEQEND
  8
0
  0
TEXT
  8
0
  6
CONTINUOUS
 40
0.300000
 10
283.926000
 20
42.381000
  1
TIPUS   T231A
  7
ROMANC
  0
ARC
  8
1
  6
CONTINUOUS
 10
286.819000
 20
34.396000
 40
0.700000
 50
360.000000
 51
540.000000
  0
POLYLINE
  8
1
  6
CONTINUOUS
 66
     1
 70
     0
  0
VERTEX
  8
1
  6
CONTINUOUS
 10
286.119000
 20
34.396000
 42
0.016322
  0
VERTEX
  8
1
  6
CONTINUOUS
 10
286.124899
 20
34.214425
 42
0.016967
  0
VERTEX
  8
1
  6
CONTINUOUS
 10
286.142852
 20
34.033653
 42
0.017395
  0
VERTEX
  8
1
  6
CONTINUOUS
 10
286.171586
 20
33.863517
 42
0.019560
  0
VERTEX
  8
1
  6
CONTINUOUS
 10
286.212782
 20
33.696000
 42
0.020572
  0
VERTEX
  8
1
  6
CONTINUOUS
 10
286.261810
 20
33.548450
 42
0.025066
  0
VERTEX
  8
1
  6
CONTINUOUS
 10
286.324025
 20
33.406051
 42
0.027056
  0
VERTEX
  8
1
  6
CONTINUOUS
 10
286.389627
 20
33.290210
 42
0.035428
  0
VERTEX
  8
1
  6
CONTINUOUS
 10
286.469000
 20
33.183564
 42
0.039107
  0
VERTEX
  8
1
  6
CONTINUOUS
 10
286.547199
 20
33.105863
 42
0.052063
  0
VERTEX
  8
1
  6
CONTINUOUS
 10
286.637827
 20
33.043704
 42
0.057060
  0
VERTEX
  8
1
  6
CONTINUOUS
 10
286.725636
 20
33.008790
 42
0.065631
  0
VERTEX
  8
1
  6
CONTINUOUS
 10
286.819000
 20
32.996000
 42
0.065631
  0
VERTEX
  8
1
  6
CONTINUOUS
 10
286.912364
 20
33.008790
 42
0.057060
  0
VERTEX
  8
1
  6
CONTINUOUS
 10
287.000173
 20
33.043704
 42
0.052063
  0
VERTEX
  8
1
  6
CONTINUOUS
 10
287.090801
 20
33.105863
 42
0.039107
  0
VERTEX
  8
1
  6
CONTINUOUS
 10
287.169000
 20
33.183564
 42
0.035428
  0
VERTEX
  8
1
  6
CONTINUOUS
 10
287.248373
 20
33.290210
 42
0.027056
  0
VERTEX
  8
1
  6
CONTINUOUS
 10
287.313975
 20
33.406051
 42
0.025066
  0
VERTEX
  8
1
  6
CONTINUOUS
 10
287.376190
 20
33.548450
 42
0.020572
  0
VERTEX
  8
1
  6
CONTINUOUS
 10
287.425218
 20
33.696000
 42
0.019560
  0
VERTEX
  8
1
  6
CONTINUOUS
 10
287.466414
 20
33.863517
 42
0.017395
  0
VERTEX
  8
1
  6
CONTINUOUS
 10
287.495148
 20
34.033653
 42
0.016967
  0
VERTEX
  8
1
  6
CONTINUOUS
 10
287.513101
 20
34.214425
 42
0.016322
  0
VERTEX
  8
1
  6
CONTINUOUS
 10
287.519000
 20
34.396000
  0
SEQEND
  8
0
  0
TEXT
  8
0
  6
CONTINUOUS
 40
0.300000
 10
283.922000
 20
40.529000
  1
P = 56 dm
  7
ROMANC
  0
TEXT
  8
0
  6
CONTINUOUS
 40
0.300000
 10
283.945000
 20
41.099000
  1
S = 231 dm
  7
ROMANC
  0
TEXT
  8
1
  6
CONTINUOUS
 40
0.075000
 10
286.706000
 20
35.298000
  1
1.40
  7
ROMANC
  0
LINE
  8
1
  6
CONTINUOUS
 10
286.668000
 20
35.335000
 11
286.119000
 21
35.335000
  0
LINE
  8
1
  6
CONTINUOUS
 10
286.970000
 20
35.335000
 11
287.519000
 21
35.335000
  0
LINE
  8
1
  6
CONTINUOUS
 10
286.082000
 20
35.316000
 11
286.156000
 21
35.354000
  0
LINE
  8
1
  6
CONTINUOUS
 10
287.556000
 20
35.354000
 11
287.482000
 21
35.316000
  0
LINE
  8
1
  6
CONTINUOUS
 10
286.119000
 20
34.434000
 11
286.119000
 21
35.373000
  0
LINE
  8
1
  6
CONTINUOUS
 10
287.519000
 20
34.434000
 11
287.519000
 21
35.373000
  0
TEXT
  8
1
  6
CONTINUOUS
 40
0.075000
 10
287.778000
 20
33.936000
  1
2.10
 50
90.000000
  7
ROMANC
  0
LINE
  8
1
  6
CONTINUOUS
 10
287.740000
 20
33.898000
 11
287.740000
 21
32.996000
  0
LINE
  8
1
  6
CONTINUOUS
 10
287.740000
 20
34.193000
 11
287.740000
 21
35.096000
  0
LINE
  8
1
  6
CONTINUOUS
 10
287.759000
 20
32.958000
 11
287.721000
 21
33.034000
  0
LINE
  8
1
  6
CONTINUOUS
 10
287.721000
 20
35.134000
 11
287.759000
 21
35.058000
  0
LINE
  8
1
  6
CONTINUOUS
 10
286.857000
 20
32.996000
 11
287.778000
 21
32.996000
  0
LINE
  8
1
  6
CONTINUOUS
 10
286.857000
 20
35.096000
 11
287.778000
 21
35.096000
  0
POLYLINE
  8
1
  6
CONTINUOUS
 66
     1
 70
     0
  0
VERTEX
  8
1
  6
CONTINUOUS
 10
286.109000
 20
34.396000
 42
0.016438
  0
VERTEX
  8
1
  6
CONTINUOUS
 10
286.114983
 20
34.213122
 42
0.017084
  0
VERTEX
  8
1
  6
CONTINUOUS
 10
286.133193
 20
34.031065
 42
0.017513
  0
VERTEX
  8
1
  6
CONTINUOUS
 10
286.162341
 20
33.859696
 42
0.019681
  0
VERTEX
  8
1
  6
CONTINUOUS
 10
286.204122
 20
33.691000
 42
0.020693
  0
VERTEX
  8
1
  6
CONTINUOUS
 10
286.253863
 20
33.542364
 42
0.025181
  0
VERTEX
  8
1
  6
CONTINUOUS
 10
286.316954
 20
33.398979
 42
0.027165
  0
VERTEX
  8
1
  6
CONTINUOUS
 10
286.383524
 20
33.282268
 42
0.035484
  0
VERTEX
  8
1
  6
CONTINUOUS
 10
286.464000
 20
33.174904
 42
0.039131
  0
VERTEX
  8
1
  6
CONTINUOUS
 10
286.543369
 20
33.096606
 42
0.051899
  0
VERTEX
  8
1
  6
CONTINUOUS
 10
286.635238
 20
33.034045
 42
0.056795
  0
VERTEX
  8
1
  6
CONTINUOUS
 10
286.724337
 20
32.998869
 42
0.065167
  0
VERTEX
  8
1
  6
CONTINUOUS
 10
286.819000
 20
32.986000
 42
0.065167
  0
VERTEX
  8
1
  6
CONTINUOUS
 10
286.913663
 20
32.998869
 42
0.056795
  0
VERTEX
  8
1
  6
CONTINUOUS
 10
287.002762
 20
33.034045
 42
0.051899
  0
VERTEX
  8
1
  6
CONTINUOUS
 10
287.094631
 20
33.096606
 42
0.039131
  0
VERTEX
  8
1
  6
CONTINUOUS
 10
287.174000
 20
33.174904
 42
0.035484
  0
VERTEX
  8
1
  6
CONTINUOUS
 10
287.254476
 20
33.282268
 42
0.027165
  0
VERTEX
  8
1
  6
CONTINUOUS
 10
287.321046
 20
33.398979
 42
0.025181
  0
VERTEX
  8
1
  6
CONTINUOUS
 10
287.384137
 20
33.542364
 42
0.020693
  0
VERTEX
  8
1
  6
CONTINUOUS
 10
287.433878
 20
33.691000
 42
0.019681
  0
VERTEX
  8
1
  6
CONTINUOUS
 10
287.475659
 20
33.859696
 42
0.017513
  0
VERTEX
  8
1
  6
CONTINUOUS
 10
287.504807
 20
34.031065
 42
0.017084
  0
VERTEX
  8
1
  6
CONTINUOUS
 10
287.523017
 20
34.213122
 42
0.016438
  0
VERTEX
  8
1
  6
CONTINUOUS
 10
287.529000
 20
34.396000
  0
SEQEND
  8
0
  0
POLYLINE
  8
1
  6
CONTINUOUS
 66
     1
 70
     0
  0
VERTEX
  8
1
  6
CONTINUOUS
 10
286.099000
 20
34.396000
 42
0.016553
  0
VERTEX
  8
1
  6
CONTINUOUS
 10
286.105068
 20
34.211819
 42
0.017200
  0
VERTEX
  8
1
  6
CONTINUOUS
 10
286.123533
 20
34.028477
 42
0.017629
  0
VERTEX
  8
1
  6
CONTINUOUS
 10
286.153097
 20
33.855875
 42
0.019799
  0
VERTEX
  8
1
  6
CONTINUOUS
 10
286.195462
 20
33.686000
 42
0.020812
  0
VERTEX
  8
1
  6
CONTINUOUS
 10
286.245916
 20
33.536279
 42
0.025293
  0
VERTEX
  8
1
  6
CONTINUOUS
 10
286.309883
 20
33.391908
 42
0.027272
  0
VERTEX
  8
1
  6
CONTINUOUS
 10
286.377421
 20
33.274325
 42
0.035538
  0
VERTEX
  8
1
  6
CONTINUOUS
 10
286.459000
 20
33.166244
 42
0.039152
  0
VERTEX
  8
1
  6
CONTINUOUS
 10
286.539539
 20
33.087350
 42
0.051737
  0
VERTEX
  8
1
  6
CONTINUOUS
 10
286.632650
 20
33.024385
 42
0.056535
  0
VERTEX
  8
1
  6
CONTINUOUS
 10
286.723037
 20
32.988948
 42
0.064716
  0
VERTEX
  8
1
  6
CONTINUOUS
 10
286.819000
 20
32.976000
 42
0.064716
  0
VERTEX
  8
1
  6
CONTINUOUS
 10
286.914963
 20
32.988948
 42
0.056535
  0
VERTEX
  8
1
  6
CONTINUOUS
 10
287.005350
 20
33.024385
 42
0.051737
  0
VERTEX
  8
1
  6
CONTINUOUS
 10
287.098461
 20
33.087350
 42
0.039152
  0
VERTEX
  8
1
  6
CONTINUOUS
 10
287.179000
 20
33.166244
 42
0.035538
  0
VERTEX
  8
1
  6
CONTINUOUS
 10
287.260579
 20
33.274325
 42
0.027272
  0
VERTEX
  8
1
  6
CONTINUOUS
 10
287.328117
 20
33.391908
 42
0.025293
  0
VERTEX
  8
1
  6
CONTINUOUS
 10
287.392084
 20
33.536279
 42
0.020812
  0
VERTEX
  8
1
  6
CONTINUOUS
 10
287.442538
 20
33.686000
 42
0.019799
  0
VERTEX
  8
1
  6
CONTINUOUS
 10
287.484903
 20
33.855875
 42
0.017629
  0
VERTEX
  8
1
  6
CONTINUOUS
 10
287.514467
 20
34.028477
 42
0.017200
  0
VERTEX
  8
1
  6
CONTINUOUS
 10
287.532932
 20
34.211819
 42
0.016553
  0
VERTEX
  8
1
  6
CONTINUOUS
 10
287.539000
 20
34.396000
  0
SEQEND
  8
0
  0
ARC
  8
1
  6
CONTINUOUS
 10
286.819000
 20
34.396000
 40
0.710000
 50
360.000000
 51
540.000000
  0
ARC
  8
1
  6
CONTINUOUS
 10
286.819000
 20
34.396000
 40
0.720000
 50
360.000000
 51
540.000000
  0
ENDSEC
  0
EOF
