  0
SECTION
  2
HEADER
  9
$ACADVER
  1
AC1009
  9
$INSBASE
 10
0.0
 20
0.0
 30
0.0
  9
$EXTMIN
 10
281.396000
 20
29.897000
 30
-2147483.648000
  9
$EXTMAX
 10
291.896000
 20
44.747000
 30
0.000000
  9
$LIMMIN
 10
280.396000
 20
28.897000
  9
$LIMMAX
 10
292.896000
 20
43.747000
  9
$ORTHOMODE
 70
     0
  9
$REGENMODE
 70
     1
  9
$FILLMODE
 70
     1
  9
$QTEXTMODE
 70
     0
  9
$MIRRTEXT
 70
     1
  9
$DRAGMODE
 70
     2
  9
$LTSCALE
 40
1.0
  9
$OSMODE
 70
     0
  9
$ATTMODE
 70
     1
  9
$TEXTSIZE
 40
0.2
  9
$TRACEWID
 40
0.05
  9
$TEXTSTYLE
  7
STANDARD
  9
$CLAYER
  8
0
  9
$CELTYPE
  6
BYLAYER
  9
$CECOLOR
 62
   256
  9
$DIMSCALE
 40
1.0
  9
$DIMASZ
 40
0.18
  9
$DIMEXO
 40
0.0625
  9
$DIMDLI
 40
0.38
  9
$DIMRND
 40
0.0
  9
$DIMDLE
 40
0.0
  9
$DIMEXE
 40
0.18
  9
$DIMTP
 40
0.0
  9
$DIMTM
 40
0.0
  9
$DIMTXT
 40
0.18
  9
$DIMCEN
 40
0.09
  9
$DIMTSZ
 40
0.0
  9
$DIMTOL
 70
     0
  9
$DIMLIM
 70
     0
  9
$DIMTIH
 70
     1
  9
$DIMTOH
 70
     1
  9
$DIMSE1
 70
     0
  9
$DIMSE2
 70
     0
  9
$DIMTAD
 70
     0
  9
$DIMZIN
 70
     0
  9
$DIMBLK
  1

  9
$DIMASO
 70
     1
  9
$DIMSHO
 70
     1
  9
$DIMPOST
  1

  9
$DIMAPOST
  1

  9
$DIMALT
 70
     0
  9
$DIMALTD
 70
     2
  9
$DIMALTF
 40
25.4
  9
$DIMLFAC
 40
1.0
  9
$DIMTOFL
 70
     0
  9
$DIMTVP
 40
0.0
  9
$DIMTIX
 70
     0
  9
$DIMSOXD
 70
     0
  9
$DIMSAH
 70
     0
  9
$DIMBLK1
  1

  9
$DIMBLK2
  1

  9
$DIMSTYLE
  2
*UNNAMED
  9
$DIMCLRD
 70
     0
  9
$DIMCLRE
 70
     0
  9
$DIMCLRT
 70
     0
  9
$DIMTFAC
 40
1.0
  9
$DIMGAP
 40
0.09
  9
$LUNITS
 70
     2
  9
$LUPREC
 70
     4
  9
$AXISMODE
 70
     0
  9
$AXISUNIT
 10
0.0
 20
0.0
  9
$SKETCHINC
 40
0.1
  9
$FILLETRAD
 40
0.0
  9
$AUNITS
 70
     0
  9
$AUPREC
 70
     0
  9
$MENU
  1
acad
  9
$ELEVATION
 40
0.0
  9
$PELEVATION
 40
0.0
  9
$THICKNESS
 40
0.0
  9
$LIMCHECK
 70
     0
  9
$BLIPMODE
 70
     1
  9
$CHAMFERA
 40
0.0
  9
$CHAMFERB
 40
0.0
  9
$SKPOLY
 70
     0
  9
$TDCREATE
 40
2448315.373408102
  9
$TDUPDATE
 40
2448315.373408102
  9
$TDINDWG
 40
0.0000000000
  9
$TDUSRTIMER
 40
0.0000000000
  9
$USRTIMER
 70
     1
  9
$ANGBASE
 50
0.0
  9
$ANGDIR
 70
     0
  9
$PDMODE
 70
     0
  9
$PDSIZE
 40
0.0
  9
$PLINEWID
 40
0.0
  9
$COORDS
 70
     0
  9
$SPLFRAME
 70
     0
  9
$SPLINETYPE
 70
     6
  9
$SPLINESEGS
 70
     8
  9
$ATTDIA
 70
     0
  9
$ATTREQ
 70
     1
  9
$HANDLING
 70
     0
  9
$HANDSEED
  5
0
  9
$SURFTAB1
 70
     6
  9
$SURFTAB2
 70
     6
  9
$SURFTYPE
 70
     6
  9
$SURFU
 70
     6
  9
$SURFV
 70
     6
  9
$UCSNAME
  2

  9
$UCSORG
 10
0.0
 20
0.0
 30
0.0
  9
$UCSXDIR
 10
1.0
 20
0.0
 30
0.0
  9
$UCSYDIR
 10
0.0
 20
1.0
 30
0.0
  9
$PUCSNAME
  2

  9
$PUCSORG
 10
0.0
 20
0.0
 30
0.0
  9
$PUCSXDIR
 10
1.0
 20
0.0
 30
0.0
  9
$PUCSYDIR
 10
0.0
 20
1.0
 30
0.0
  9
$USERI1
 70
     0
  9
$USERI2
 70
     0
  9
$USERI3
 70
     0
  9
$USERI4
 70
     0
  9
$USERI5
 70
     0
  9
$USERR1
 40
0.0
  9
$USERR2
 40
0.0
  9
$USERR3
 40
0.0
  9
$USERR4
 40
0.0
  9
$USERR5
 40
0.0
  9
$WORLDVIEW
 70
     1
  9
$SHADEDGE
 70
     3
  9
$SHADEDIF
 70
    70
  9
$TILEMODE
 70
     1
  9
$MAXACTVP
 70
    16
  9
$PINSBASE
 10
0.0
 20
0.0
 30
0.0
  9
$PLIMCHECK
 70
     0
  9
$PEXTMIN
 10
1.000000E+20
 20
1.000000E+20
 30
1.000000E+20
  9
$PEXTMAX
 10
-1.000000E+20
 20
-1.000000E+20
 30
-1.000000E+20
  9
$PLIMMIN
 10
0.0
 20
0.0
  9
$PLIMMAX
 10
12.0
 20
9.0
  9
$UNITMODE
 70
     0
  9
$VISRETAIN
 70
     0
  0
ENDSEC
  0
SECTION
  2
TABLES
  0
TABLE
  2
LTYPE
 70
    1
  0
LTYPE
  2
CONTINUOUS
 70
    64
3
Solid line
 72
    65
 73
0
 40
0.000000
  0
ENDTAB
  0
TABLE
  2
LAYER
 70
    8
  0
LAYER
  2
0
 70
    64
 62
7
  6
CONTINUOUS
  0
LAYER
  2
1
 70
    64
 62
7
  6
CONTINUOUS
  0
LAYER
  2
7
 70
    64
 62
7
  6
CONTINUOUS
  0
LAYER
  2
8
 70
    64
 62
7
  6
CONTINUOUS
  0
LAYER
  2
9
 70
    64
 62
7
  6
CONTINUOUS
  0
LAYER
  2
22
 70
    64
 62
7
  6
CONTINUOUS
  0
LAYER
  2
25
 70
    64
 62
7
  6
CONTINUOUS
  0
LAYER
  2
0
 70
    64
 62
7
  6
CONTINUOUS
  0
ENDTAB
  0
TABLE
  2
STYLE
 70
    1
  0
STYLE
  2
ROMANC
70
     0
 40
0.0
 41
1.0
 50
0.0
 71
     0
 42
0.2
  3
ROMANC
  4

  0
ENDTAB
  0
ENDSEC
  0
SECTION
  2
BLOCKS
  0
ENDSEC
  0
SECTION
  2
ENTITIES
  0
TEXT
  8
0
  6
CONTINUOUS
 40
0.100000
 10
286.909000
 20
41.324000
  1
2
  7
ROMANC
  0
TEXT
  8
0
  6
CONTINUOUS
 40
0.300000
 10
283.926000
 20
41.768000
  1
ESCALA  1:50
  7
ROMANC
  0
POLYLINE
  8
0
  6
CONTINUOUS
 66
     1
 70
     1
  0
VERTEX
  8
0
  6
CONTINUOUS
 10
281.396000
 20
44.747000
  0
VERTEX
  8
0
  6
CONTINUOUS
 10
291.896000
 20
44.747000
  0
VERTEX
  8
0
  6
CONTINUOUS
 10
291.896000
 20
29.897000
  0
VERTEX
  8
0
  6
CONTINUOUS
 10
281.396000
 20
29.897000
  0
SEQEND
  8
0
  0
TEXT
  8
0
  6
CONTINUOUS
 40
0.300000
 10
283.926000
 20
42.381000
  1
TIPUS   T204
  7
ROMANC
  0
TEXT
  8
0
  6
CONTINUOUS
 40
0.300000
 10
283.922000
 20
40.529000
  1
P = 62 dm
  7
ROMANC
  0
TEXT
  8
0
  6
CONTINUOUS
 40
0.300000
 10
283.945000
 20
41.099000
  1
S = 206 dm
  7
ROMANC
  0
LINE
  8
1
  6
CONTINUOUS
 10
285.886000
 20
33.024000
 11
285.886000
 21
33.974000
  0
LINE
  8
1
  6
CONTINUOUS
 10
285.886000
 20
33.974000
 11
287.886000
 21
33.974000
  0
LINE
  8
1
  6
CONTINUOUS
 10
287.886000
 20
33.974000
 11
287.886000
 21
33.024000
  0
LINE
  8
1
  6
CONTINUOUS
 10
287.886000
 20
33.024000
 11
287.136000
 21
32.974000
  0
ARC
  8
1
  6
CONTINUOUS
 10
286.886000
 20
32.974000
 40
0.250000
 50
180.000000
 51
360.000000
  0
LINE
  8
1
  6
CONTINUOUS
 10
286.636000
 20
32.974000
 11
285.886000
 21
33.024000
  0
TEXT
  8
1
  6
CONTINUOUS
 40
0.075000
 10
286.142000
 20
32.594000
  1
0.75
  7
ROMANC
  0
LINE
  8
1
  6
CONTINUOUS
 10
286.104000
 20
32.632000
 11
285.886000
 21
32.632000
  0
LINE
  8
1
  6
CONTINUOUS
 10
286.416000
 20
32.632000
 11
286.636000
 21
32.632000
  0
LINE
  8
1
  6
CONTINUOUS
 10
285.848000
 20
32.613000
 11
285.924000
 21
32.651000
  0
LINE
  8
1
  6
CONTINUOUS
 10
286.674000
 20
32.651000
 11
286.598000
 21
32.613000
  0
LINE
  8
1
  6
CONTINUOUS
 10
285.886000
 20
32.986000
 11
285.886000
 21
32.594000
  0
LINE
  8
1
  6
CONTINUOUS
 10
286.636000
 20
32.936000
 11
286.636000
 21
32.594000
  0
TEXT
  8
1
  6
CONTINUOUS
 40
0.075000
 10
287.392000
 20
32.594000
  1
0.75
  7
ROMANC
  0
LINE
  8
1
  6
CONTINUOUS
 10
287.354000
 20
32.632000
 11
287.136000
 21
32.632000
  0
LINE
  8
1
  6
CONTINUOUS
 10
287.666000
 20
32.632000
 11
287.886000
 21
32.632000
  0
LINE
  8
1
  6
CONTINUOUS
 10
287.098000
 20
32.613000
 11
287.174000
 21
32.651000
  0
LINE
  8
1
  6
CONTINUOUS
 10
287.924000
 20
32.651000
 11
287.848000
 21
32.613000
  0
LINE
  8
1
  6
CONTINUOUS
 10
287.136000
 20
32.936000
 11
287.136000
 21
32.594000
  0
LINE
  8
1
  6
CONTINUOUS
 10
287.886000
 20
32.986000
 11
287.886000
 21
32.594000
  0
TEXT
  8
1
  6
CONTINUOUS
 40
0.075000
 10
286.767000
 20
32.462000
  1
0.50
  7
ROMANC
  0
LINE
  8
1
  6
CONTINUOUS
 10
286.486000
 20
32.499000
 11
286.636000
 21
32.499000
  0
LINE
  8
1
  6
CONTINUOUS
 10
287.286000
 20
32.499000
 11
287.136000
 21
32.499000
  0
LINE
  8
1
  6
CONTINUOUS
 10
286.674000
 20
32.518000
 11
286.598000
 21
32.480000
  0
LINE
  8
1
  6
CONTINUOUS
 10
287.098000
 20
32.480000
 11
287.174000
 21
32.518000
  0
LINE
  8
1
  6
CONTINUOUS
 10
286.636000
 20
32.936000
 11
286.636000
 21
32.461000
  0
LINE
  8
1
  6
CONTINUOUS
 10
287.136000
 20
32.936000
 11
287.136000
 21
32.461000
  0
TEXT
  8
1
  6
CONTINUOUS
 40
0.075000
 10
286.767000
 20
32.312000
  1
2.00
  7
ROMANC
  0
LINE
  8
1
  6
CONTINUOUS
 10
286.729000
 20
32.349000
 11
285.886000
 21
32.349000
  0
LINE
  8
1
  6
CONTINUOUS
 10
287.041000
 20
32.349000
 11
287.886000
 21
32.349000
  0
LINE
  8
1
  6
CONTINUOUS
 10
285.848000
 20
32.330000
 11
285.924000
 21
32.368000
  0
LINE
  8
1
  6
CONTINUOUS
 10
287.924000
 20
32.368000
 11
287.848000
 21
32.330000
  0
LINE
  8
1
  6
CONTINUOUS
 10
285.886000
 20
32.986000
 11
285.886000
 21
32.311000
  0
LINE
  8
1
  6
CONTINUOUS
 10
287.886000
 20
32.986000
 11
287.886000
 21
32.311000
  0
TEXT
  8
1
  6
CONTINUOUS
 40
0.075000
 10
288.018000
 20
33.137000
  1
0.25
 50
90.000000
  7
ROMANC
  0
LINE
  8
1
  6
CONTINUOUS
 10
287.980000
 20
32.574000
 11
287.980000
 21
32.724000
  0
LINE
  8
1
  6
CONTINUOUS
 10
287.980000
 20
33.099000
 11
287.980000
 21
32.974000
  0
LINE
  8
1
  6
CONTINUOUS
 10
287.961000
 20
32.762000
 11
287.999000
 21
32.686000
  0
LINE
  8
1
  6
CONTINUOUS
 10
287.999000
 20
32.936000
 11
287.961000
 21
33.012000
  0
LINE
  8
1
  6
CONTINUOUS
 10
286.924000
 20
32.724000
 11
288.018000
 21
32.724000
  0
LINE
  8
1
  6
CONTINUOUS
 10
287.174000
 20
32.974000
 11
288.018000
 21
32.974000
  0
TEXT
  8
1
  6
CONTINUOUS
 40
0.075000
 10
288.304000
 20
33.569000
  1
0.95
 50
90.000000
  7
ROMANC
  0
LINE
  8
1
  6
CONTINUOUS
 10
288.266000
 20
33.531000
 11
288.266000
 21
33.024000
  0
LINE
  8
1
  6
CONTINUOUS
 10
288.266000
 20
33.843000
 11
288.266000
 21
33.974000
  0
LINE
  8
1
  6
CONTINUOUS
 10
288.285000
 20
32.986000
 11
288.247000
 21
33.062000
  0
LINE
  8
1
  6
CONTINUOUS
 10
288.247000
 20
34.012000
 11
288.285000
 21
33.936000
  0
LINE
  8
1
  6
CONTINUOUS
 10
287.924000
 20
33.024000
 11
288.304000
 21
33.024000
  0
LINE
  8
1
  6
CONTINUOUS
 10
287.924000
 20
33.974000
 11
288.304000
 21
33.974000
  0
TEXT
  8
1
  6
CONTINUOUS
 40
0.075000
 10
288.450000
 20
33.239000
  1
1.25
 50
90.000000
  7
ROMANC
  0
LINE
  8
1
  6
CONTINUOUS
 10
288.413000
 20
33.201000
 11
288.413000
 21
32.724000
  0
LINE
  8
1
  6
CONTINUOUS
 10
288.413000
 20
33.496000
 11
288.413000
 21
33.974000
  0
LINE
  8
1
  6
CONTINUOUS
 10
288.432000
 20
32.686000
 11
288.394000
 21
32.762000
  0
LINE
  8
1
  6
CONTINUOUS
 10
288.394000
 20
34.012000
 11
288.432000
 21
33.936000
  0
LINE
  8
1
  6
CONTINUOUS
 10
286.924000
 20
32.724000
 11
288.451000
 21
32.724000
  0
LINE
  8
1
  6
CONTINUOUS
 10
286.924000
 20
33.974000
 11
288.451000
 21
33.974000
  0
TEXT
  8
1
  6
CONTINUOUS
 40
0.075000
 10
288.128000
 20
33.408000
  1
0.05
 50
90.000000
  7
ROMANC
  0
LINE
  8
1
  6
CONTINUOUS
 10
288.091000
 20
32.824000
 11
288.091000
 21
32.974000
  0
LINE
  8
1
  6
CONTINUOUS
 10
288.091000
 20
33.370000
 11
288.091000
 21
33.024000
  0
LINE
  8
1
  6
CONTINUOUS
 10
288.072000
 20
33.012000
 11
288.110000
 21
32.936000
  0
LINE
  8
1
  6
CONTINUOUS
 10
288.110000
 20
32.986000
 11
288.072000
 21
33.062000
  0
LINE
  8
1
  6
CONTINUOUS
 10
287.174000
 20
32.974000
 11
288.129000
 21
32.974000
  0
LINE
  8
1
  6
CONTINUOUS
 10
287.924000
 20
33.024000
 11
288.129000
 21
33.024000
  0
LINE
  8
1
  6
CONTINUOUS
 10
285.876000
 20
33.015000
 11
285.876000
 21
33.984000
  0
LINE
  8
1
  6
CONTINUOUS
 10
285.866000
 20
33.005000
 11
285.866000
 21
33.994000
  0
LINE
  8
1
  6
CONTINUOUS
 10
286.626000
 20
32.965000
 11
285.876000
 21
33.015000
  0
LINE
  8
1
  6
CONTINUOUS
 10
286.617000
 20
32.955000
 11
285.866000
 21
33.005000
  0
ARC
  8
1
  6
CONTINUOUS
 10
286.886000
 20
32.974000
 40
0.260000
 50
182.073392
 51
357.940317
  0
ARC
  8
1
  6
CONTINUOUS
 10
286.886000
 20
32.974000
 40
0.270000
 50
184.003017
 51
356.012197
  0
LINE
  8
1
  6
CONTINUOUS
 10
287.896000
 20
33.015000
 11
287.146000
 21
32.965000
  0
LINE
  8
1
  6
CONTINUOUS
 10
287.906000
 20
33.005000
 11
287.155000
 21
32.955000
  0
LINE
  8
1
  6
CONTINUOUS
 10
287.896000
 20
33.984000
 11
287.896000
 21
33.015000
  0
LINE
  8
1
  6
CONTINUOUS
 10
287.906000
 20
33.994000
 11
287.906000
 21
33.005000
  0
LINE
  8
1
  6
CONTINUOUS
 10
285.876000
 20
33.984000
 11
287.896000
 21
33.984000
  0
LINE
  8
1
  6
CONTINUOUS
 10
285.866000
 20
33.994000
 11
287.906000
 21
33.994000
  0
ENDSEC
  0
EOF
