  0
SECTION
  2
HEADER
  9
$ACADVER
  1
AC1009
  9
$INSBASE
 10
0.0
 20
0.0
 30
0.0
  9
$EXTMIN
 10
281.396
 20
29.897
 30
0.0
  9
$EXTMAX
 10
291.896
 20
44.747
 30
0.0
  9
$LIMMIN
 10
280.396
 20
28.897
  9
$LIMMAX
 10
292.896
 20
43.747
  9
$ORTHOMODE
 70
     0
  9
$REGENMODE
 70
     1
  9
$FILLMODE
 70
     1
  9
$QTEXTMODE
 70
     0
  9
$MIRRTEXT
 70
     1
  9
$DRAGMODE
 70
     2
  9
$LTSCALE
 40
1.0
  9
$OSMODE
 70
     0
  9
$ATTMODE
 70
     1
  9
$TEXTSIZE
 40
0.2
  9
$TRACEWID
 40
0.05
  9
$TEXTSTYLE
  7
ROMANC
  9
$CLAYER
  8
0
  9
$CELTYPE
  6
BYLAYER
  9
$CECOLOR
 62
   256
  9
$DIMSCALE
 40
1.0
  9
$DIMASZ
 40
0.0
  9
$DIMEXO
 40
0.0625
  9
$DIMDLI
 40
0.38
  9
$DIMRND
 40
0.0
  9
$DIMDLE
 40
0.0
  9
$DIMEXE
 40
0.03
  9
$DIMTP
 40
0.0
  9
$DIMTM
 40
0.0
  9
$DIMTXT
 40
0.075
  9
$DIMCEN
 40
0.09
  9
$DIMTSZ
 40
0.03
  9
$DIMTOL
 70
     0
  9
$DIMLIM
 70
     0
  9
$DIMTIH
 70
     1
  9
$DIMTOH
 70
     1
  9
$DIMSE1
 70
     0
  9
$DIMSE2
 70
     0
  9
$DIMTAD
 70
     0
  9
$DIMZIN
 70
     0
  9
$DIMBLK
  1

  9
$DIMASO
 70
     1
  9
$DIMSHO
 70
     1
  9
$DIMPOST
  1

  9
$DIMAPOST
  1

  9
$DIMALT
 70
     0
  9
$DIMALTD
 70
     2
  9
$DIMALTF
 40
25.4
  9
$DIMLFAC
 40
1.0
  9
$DIMTOFL
 70
     0
  9
$DIMTVP
 40
0.0
  9
$DIMTIX
 70
     0
  9
$DIMSOXD
 70
     0
  9
$DIMSAH
 70
     0
  9
$DIMBLK1
  1

  9
$DIMBLK2
  1

  9
$DIMSTYLE
  2
*UNNAMED
  9
$DIMCLRD
 70
     0
  9
$DIMCLRE
 70
     0
  9
$DIMCLRT
 70
     0
  9
$DIMTFAC
 40
2.4
  9
$DIMGAP
 40
0.09
  9
$LUNITS
 70
     2
  9
$LUPREC
 70
     4
  9
$SKETCHINC
 40
0.1
  9
$FILLETRAD
 40
0.0
  9
$AUNITS
 70
     0
  9
$AUPREC
 70
     0
  9
$MENU
  1
acad
  9
$ELEVATION
 40
0.0
  9
$PELEVATION
 40
0.0
  9
$THICKNESS
 40
0.0
  9
$LIMCHECK
 70
     0
  9
$BLIPMODE
 70
     1
  9
$CHAMFERA
 40
0.0
  9
$CHAMFERB
 40
0.0
  9
$SKPOLY
 70
     0
  9
$TDCREATE
 40
2448315.373408102
  9
$TDUPDATE
 40
2448315.373408102
  9
$TDINDWG
 40
0.0000000000
  9
$TDUSRTIMER
 40
0.0000000000
  9
$USRTIMER
 70
     1
  9
$ANGBASE
 50
0.0
  9
$ANGDIR
 70
     0
  9
$PDMODE
 70
     0
  9
$PDSIZE
 40
0.0
  9
$PLINEWID
 40
0.0
  9
$COORDS
 70
     0
  9
$SPLFRAME
 70
     0
  9
$SPLINETYPE
 70
     6
  9
$SPLINESEGS
 70
     8
  9
$ATTDIA
 70
     0
  9
$ATTREQ
 70
     1
  9
$HANDLING
 70
     0
  9
$HANDSEED
  5
0
  9
$SURFTAB1
 70
     6
  9
$SURFTAB2
 70
     6
  9
$SURFTYPE
 70
     6
  9
$SURFU
 70
     6
  9
$SURFV
 70
     6
  9
$UCSNAME
  2

  9
$UCSORG
 10
0.0
 20
0.0
 30
0.0
  9
$UCSXDIR
 10
1.0
 20
0.0
 30
0.0
  9
$UCSYDIR
 10
0.0
 20
1.0
 30
0.0
  9
$PUCSNAME
  2

  9
$PUCSORG
 10
0.0
 20
0.0
 30
0.0
  9
$PUCSXDIR
 10
1.0
 20
0.0
 30
0.0
  9
$PUCSYDIR
 10
0.0
 20
1.0
 30
0.0
  9
$USERI1
 70
     0
  9
$USERI2
 70
     0
  9
$USERI3
 70
     0
  9
$USERI4
 70
     0
  9
$USERI5
 70
     0
  9
$USERR1
 40
0.0
  9
$USERR2
 40
0.0
  9
$USERR3
 40
0.0
  9
$USERR4
 40
0.0
  9
$USERR5
 40
0.0
  9
$WORLDVIEW
 70
     1
  9
$SHADEDGE
 70
     3
  9
$SHADEDIF
 70
    70
  9
$TILEMODE
 70
     1
  9
$MAXACTVP
 70
    16
  9
$PINSBASE
 10
0.0
 20
0.0
 30
0.0
  9
$PLIMCHECK
 70
     0
  9
$PEXTMIN
 10
1.000000E+20
 20
1.000000E+20
 30
1.000000E+20
  9
$PEXTMAX
 10
-1.000000E+20
 20
-1.000000E+20
 30
-1.000000E+20
  9
$PLIMMIN
 10
0.0
 20
0.0
  9
$PLIMMAX
 10
12.0
 20
9.0
  9
$UNITMODE
 70
     0
  9
$VISRETAIN
 70
     0
  9
$PLINEGEN
 70
     0
  9
$PSLTSCALE
 70
     0
  9
$TREEDEPTH
 70
  3020
  9
$DWGCODEPAGE
  3
iso8859-1
  0
ENDSEC
  0
SECTION
  2
TABLES
  0
TABLE
  2
VPORT
 70
     2
  0
VPORT
  2
*ACTIVE
 70
     0
 10
0.0
 20
0.0
 11
1.0
 21
1.0
 12
293.35785
 22
37.322
 13
0.0
 23
0.0
 14
1.0
 24
1.0
 15
10.0
 25
10.0
 16
0.0
 26
0.0
 36
1.0
 17
0.0
 27
0.0
 37
0.0
 40
14.85
 41
1.611024
 42
50.0
 43
0.0
 44
0.0
 50
0.0
 51
0.0
 71
     0
 72
   100
 73
     1
 74
     0
 75
     0
 76
     0
 77
     0
 78
     0
  0
ENDTAB
  0
TABLE
  2
LTYPE
 70
     1
  0
LTYPE
  2
CONTINUOUS
 70
    64
  3
Solid line
 72
    65
 73
     0
 40
0.0
  0
ENDTAB
  0
TABLE
  2
LAYER
 70
     8
  0
LAYER
  2
0
 70
    64
 62
     7
  6
CONTINUOUS
  0
LAYER
  2
1
 70
    64
 62
     7
  6
CONTINUOUS
  0
LAYER
  2
7
 70
    64
 62
     7
  6
CONTINUOUS
  0
LAYER
  2
8
 70
    64
 62
     7
  6
CONTINUOUS
  0
LAYER
  2
9
 70
    64
 62
     7
  6
CONTINUOUS
  0
LAYER
  2
22
 70
    64
 62
     7
  6
CONTINUOUS
  0
LAYER
  2
25
 70
    64
 62
     7
  6
CONTINUOUS
  0
LAYER
  2
DEFPOINTS
 70
    64
 62
     7
  6
CONTINUOUS
  0
ENDTAB
  0
TABLE
  2
STYLE
 70
     2
  0
STYLE
  2
STANDARD
 70
     0
 40
0.0
 41
1.0
 50
0.0
 71
     0
 42
3.5
  3
txt
  4

  0
STYLE
  2
ROMANC
 70
    64
 40
0.0
 41
1.0
 50
0.0
 71
     0
 42
0.2
  3
romanc
  4

  0
ENDTAB
  0
TABLE
  2
VIEW
 70
     0
  0
ENDTAB
  0
TABLE
  2
UCS
 70
     0
  0
ENDTAB
  0
TABLE
  2
APPID
 70
     1
  0
APPID
  2
ACAD
 70
    64
  0
ENDTAB
  0
TABLE
  2
DIMSTYLE
 70
     0
  0
ENDTAB
  0
ENDSEC
  0
SECTION
  2
BLOCKS
  0
BLOCK
  8
0
  2
*D0
 70
    65
 10
0.0
 20
0.0
 30
0.0
  3
*D
  0
LINE
  8
0
  6
BYBLOCK
 62
     0
 10
285.822
 20
33.3235
 30
0.0
 11
285.822
 21
34.633545
 31
0.0
  0
LINE
  8
0
  6
BYBLOCK
 62
     0
 10
287.422
 20
33.3235
 30
0.0
 11
287.422
 21
34.633545
 31
0.0
  0
LINE
  8
0
  6
BYBLOCK
 62
     0
 10
285.822
 20
34.603545
 30
0.0
 11
286.423071
 21
34.603545
 31
0.0
  0
LINE
  8
0
  6
BYBLOCK
 62
     0
 10
287.422
 20
34.603545
 30
0.0
 11
286.820929
 21
34.603545
 31
0.0
  0
LINE
  8
0
  6
BYBLOCK
 62
     0
 10
285.792
 20
34.573545
 30
0.0
 11
285.852
 21
34.633545
 31
0.0
  0
LINE
  8
0
  6
BYBLOCK
 62
     0
 10
287.392
 20
34.573545
 30
0.0
 11
287.452
 21
34.633545
 31
0.0
  0
TEXT
  8
0
  6
BYBLOCK
 62
     0
 10
286.491643
 20
34.566045
 30
0.0
 40
0.075
  1
1.60
  7
ROMANC
 72
     1
 11
286.622
 21
34.603545
 31
0.0
 73
     2
  0
POINT
  8
DEFPOINTS
  6
BYBLOCK
 62
     0
 10
285.822
 20
33.261
 30
0.0
  0
POINT
  8
DEFPOINTS
  6
BYBLOCK
 62
     0
 10
287.422
 20
33.261
 30
0.0
  0
POINT
  8
DEFPOINTS
  6
BYBLOCK
 62
     0
 10
287.422
 20
34.603545
 30
0.0
  0
ENDBLK
  8
0
  0
ENDSEC
  0
SECTION
  2
ENTITIES
  0
TEXT
  8
0
  6
CONTINUOUS
 10
286.909
 20
41.324
 30
0.0
 40
0.1
  1
2
  7
ROMANC
  0
TEXT
  8
0
  6
CONTINUOUS
 10
283.926
 20
41.768
 30
0.0
 40
0.3
  1
ESCALA  1:50
  7
ROMANC
  0
POLYLINE
  8
0
  6
CONTINUOUS
 66
     1
 10
0.0
 20
0.0
 30
0.0
 70
     1
  0
VERTEX
  8
0
  6
CONTINUOUS
 10
281.396
 20
44.747
 30
0.0
  0
VERTEX
  8
0
  6
CONTINUOUS
 10
291.896
 20
44.747
 30
0.0
  0
VERTEX
  8
0
  6
CONTINUOUS
 10
291.896
 20
29.897
 30
0.0
  0
VERTEX
  8
0
  6
CONTINUOUS
 10
281.396
 20
29.897
 30
0.0
  0
SEQEND
  8
0
  0
TEXT
  8
0
  6
CONTINUOUS
 10
283.926
 20
42.381
 30
0.0
 40
0.3
  1
TIPUS   T200A
  7
ROMANC
  0
ARC
  8
1
  6
CONTINUOUS
 10
286.622
 20
33.261
 30
0.0
 40
0.8
 50
0.0
 51
180.0
  0
LINE
  8
1
  6
CONTINUOUS
 10
285.822
 20
33.261
 30
0.0
 11
285.922
 21
32.661
 31
0.0
  0
TEXT
  8
0
  6
CONTINUOUS
 10
283.922
 20
40.529
 30
0.0
 40
0.3
  1
P = 53 dm
  7
ROMANC
  0
TEXT
  8
0
  6
CONTINUOUS
 10
283.945
 20
41.099
 30
0.0
 40
0.3
  1
S = 200 dm
  7
ROMANC
  0
LINE
  8
1
  6
CONTINUOUS
 10
285.922
 20
32.661
 30
0.0
 11
286.272
 21
32.661
 31
0.0
  0
TEXT
  8
1
  6
CONTINUOUS
 10
285.987
 20
32.304
 30
0.0
 40
0.075
  1
0.35
  7
ROMANC
  0
LINE
  8
1
  6
CONTINUOUS
 10
285.772
 20
32.342
 30
0.0
 11
285.922
 21
32.342
 31
0.0
  0
LINE
  8
1
  6
CONTINUOUS
 10
286.422
 20
32.342
 30
0.0
 11
286.272
 21
32.342
 31
0.0
  0
LINE
  8
1
  6
CONTINUOUS
 10
285.96
 20
32.361
 30
0.0
 11
285.884
 21
32.323
 31
0.0
  0
LINE
  8
1
  6
CONTINUOUS
 10
286.234
 20
32.323
 30
0.0
 11
286.31
 21
32.361
 31
0.0
  0
LINE
  8
1
  6
CONTINUOUS
 10
285.922
 20
32.623
 30
0.0
 11
285.922
 21
32.304
 31
0.0
  0
LINE
  8
1
  6
CONTINUOUS
 10
286.272
 20
32.623
 30
0.0
 11
286.272
 21
32.304
 31
0.0
  0
LINE
  8
1
  6
CONTINUOUS
 10
286.972
 20
32.661
 30
0.0
 11
287.322
 21
32.661
 31
0.0
  0
TEXT
  8
1
  6
CONTINUOUS
 10
287.033
 20
32.304
 30
0.0
 40
0.075
  1
0.35
  7
ROMANC
  0
LINE
  8
1
  6
CONTINUOUS
 10
286.822
 20
32.342
 30
0.0
 11
286.972
 21
32.342
 31
0.0
  0
LINE
  8
1
  6
CONTINUOUS
 10
287.472
 20
32.342
 30
0.0
 11
287.322
 21
32.342
 31
0.0
  0
LINE
  8
1
  6
CONTINUOUS
 10
287.01
 20
32.361
 30
0.0
 11
286.934
 21
32.323
 31
0.0
  0
LINE
  8
1
  6
CONTINUOUS
 10
287.284
 20
32.323
 30
0.0
 11
287.36
 21
32.361
 31
0.0
  0
LINE
  8
1
  6
CONTINUOUS
 10
286.972
 20
32.623
 30
0.0
 11
286.972
 21
32.304
 31
0.0
  0
LINE
  8
1
  6
CONTINUOUS
 10
287.322
 20
32.623
 30
0.0
 11
287.322
 21
32.304
 31
0.0
  0
ARC
  8
1
  6
CONTINUOUS
 10
286.622
 20
32.86725
 30
0.0
 40
0.40625
 50
210.510236
 51
329.489761
  0
TEXT
  8
1
  6
CONTINUOUS
 10
286.503
 20
32.172
 30
0.0
 40
0.075
  1
0.70
  7
ROMANC
  0
LINE
  8
1
  6
CONTINUOUS
 10
286.465
 20
32.21
 30
0.0
 11
286.272
 21
32.21
 31
0.0
  0
LINE
  8
1
  6
CONTINUOUS
 10
286.777
 20
32.21
 30
0.0
 11
286.972
 21
32.21
 31
0.0
  0
LINE
  8
1
  6
CONTINUOUS
 10
286.234
 20
32.191
 30
0.0
 11
286.31
 21
32.229
 31
0.0
  0
LINE
  8
1
  6
CONTINUOUS
 10
287.01
 20
32.229
 30
0.0
 11
286.934
 21
32.191
 31
0.0
  0
LINE
  8
1
  6
CONTINUOUS
 10
286.272
 20
32.623
 30
0.0
 11
286.272
 21
32.172
 31
0.0
  0
LINE
  8
1
  6
CONTINUOUS
 10
286.972
 20
32.623
 30
0.0
 11
286.972
 21
32.172
 31
0.0
  0
TEXT
  8
1
  6
CONTINUOUS
 10
286.509
 20
32.004
 30
0.0
 40
0.075
  1
1.40
  7
ROMANC
  0
LINE
  8
1
  6
CONTINUOUS
 10
286.471
 20
32.042
 30
0.0
 11
285.922
 21
32.042
 31
0.0
  0
LINE
  8
1
  6
CONTINUOUS
 10
286.773
 20
32.042
 30
0.0
 11
287.322
 21
32.042
 31
0.0
  0
LINE
  8
1
  6
CONTINUOUS
 10
285.884
 20
32.023
 30
0.0
 11
285.96
 21
32.061
 31
0.0
  0
LINE
  8
1
  6
CONTINUOUS
 10
287.36
 20
32.061
 30
0.0
 11
287.284
 21
32.023
 31
0.0
  0
LINE
  8
1
  6
CONTINUOUS
 10
285.922
 20
32.623
 30
0.0
 11
285.922
 21
32.004
 31
0.0
  0
LINE
  8
1
  6
CONTINUOUS
 10
287.322
 20
32.623
 30
0.0
 11
287.322
 21
32.004
 31
0.0
  0
TEXT
  8
1
  6
CONTINUOUS
 10
287.572
 20
32.841
 30
0.0
 40
0.075
  1
0.20
 50
90.0
  7
ROMANC
  0
LINE
  8
1
  6
CONTINUOUS
 10
287.535
 20
32.311
 30
0.0
 11
287.535
 21
32.461
 31
0.0
  0
LINE
  8
1
  6
CONTINUOUS
 10
287.535
 20
32.803
 30
0.0
 11
287.535
 21
32.661
 31
0.0
  0
LINE
  8
1
  6
CONTINUOUS
 10
287.516
 20
32.498
 30
0.0
 11
287.554
 21
32.424
 31
0.0
  0
LINE
  8
1
  6
CONTINUOUS
 10
287.554
 20
32.624
 30
0.0
 11
287.516
 21
32.698
 31
0.0
  0
LINE
  8
1
  6
CONTINUOUS
 10
286.66
 20
32.461
 30
0.0
 11
287.573
 21
32.461
 31
0.0
  0
LINE
  8
1
  6
CONTINUOUS
 10
287.01
 20
32.661
 30
0.0
 11
287.573
 21
32.661
 31
0.0
  0
LINE
  8
1
  6
CONTINUOUS
 10
287.322
 20
32.661
 30
0.0
 11
287.422
 21
33.261
 31
0.0
  0
TEXT
  8
1
  6
CONTINUOUS
 10
287.766
 20
32.842
 30
0.0
 40
0.075
  1
0.60
 50
90.0
  7
ROMANC
  0
LINE
  8
1
  6
CONTINUOUS
 10
287.729
 20
32.511
 30
0.0
 11
287.729
 21
32.661
 31
0.0
  0
LINE
  8
1
  6
CONTINUOUS
 10
287.729
 20
33.411
 30
0.0
 11
287.729
 21
33.261
 31
0.0
  0
LINE
  8
1
  6
CONTINUOUS
 10
287.71
 20
32.698
 30
0.0
 11
287.748
 21
32.624
 31
0.0
  0
LINE
  8
1
  6
CONTINUOUS
 10
287.748
 20
33.224
 30
0.0
 11
287.71
 21
33.298
 31
0.0
  0
LINE
  8
1
  6
CONTINUOUS
 10
287.36
 20
32.661
 30
0.0
 11
287.767
 21
32.661
 31
0.0
  0
LINE
  8
1
  6
CONTINUOUS
 10
287.46
 20
33.261
 30
0.0
 11
287.767
 21
33.261
 31
0.0
  0
TEXT
  8
1
  6
CONTINUOUS
 10
287.766
 20
33.542
 30
0.0
 40
0.075
  1
0.80
 50
90.0
  7
ROMANC
  0
LINE
  8
1
  6
CONTINUOUS
 10
287.729
 20
33.504
 30
0.0
 11
287.729
 21
33.261
 31
0.0
  0
LINE
  8
1
  6
CONTINUOUS
 10
287.729
 20
33.816
 30
0.0
 11
287.729
 21
34.061
 31
0.0
  0
LINE
  8
1
  6
CONTINUOUS
 10
287.748
 20
33.224
 30
0.0
 11
287.71
 21
33.298
 31
0.0
  0
LINE
  8
1
  6
CONTINUOUS
 10
287.71
 20
34.098
 30
0.0
 11
287.748
 21
34.024
 31
0.0
  0
LINE
  8
1
  6
CONTINUOUS
 10
286.66
 20
34.061
 30
0.0
 11
287.767
 21
34.061
 31
0.0
  0
TEXT
  8
1
  6
CONTINUOUS
 10
287.944
 20
33.151
 30
0.0
 40
0.075
  1
1.60
 50
90.0
  7
ROMANC
  0
LINE
  8
1
  6
CONTINUOUS
 10
287.906
 20
33.113
 30
0.0
 11
287.906
 21
32.461
 31
0.0
  0
LINE
  8
1
  6
CONTINUOUS
 10
287.906
 20
33.408
 30
0.0
 11
287.906
 21
34.061
 31
0.0
  0
LINE
  8
1
  6
CONTINUOUS
 10
287.925
 20
32.424
 30
0.0
 11
287.887
 21
32.498
 31
0.0
  0
LINE
  8
1
  6
CONTINUOUS
 10
287.887
 20
34.098
 30
0.0
 11
287.925
 21
34.024
 31
0.0
  0
LINE
  8
1
  6
CONTINUOUS
 10
286.66
 20
32.461
 30
0.0
 11
287.944
 21
32.461
 31
0.0
  0
LINE
  8
1
  6
CONTINUOUS
 10
286.66
 20
34.061
 30
0.0
 11
287.944
 21
34.061
 31
0.0
  0
LINE
  8
1
  6
CONTINUOUS
 10
285.812
 20
33.259
 30
0.0
 11
285.913
 21
32.651
 31
0.0
  0
LINE
  8
1
  6
CONTINUOUS
 10
285.802
 20
33.257
 30
0.0
 11
285.905
 21
32.641
 31
0.0
  0
ARC
  8
1
  6
CONTINUOUS
 10
286.622
 20
33.261
 30
0.0
 40
0.81
 50
0.0
 51
180.0
  0
ARC
  8
1
  6
CONTINUOUS
 10
286.622
 20
33.261
 30
0.0
 40
0.82
 50
0.137403
 51
180.283694
  0
LINE
  8
1
  6
CONTINUOUS
 10
287.33
 20
32.651
 30
0.0
 11
287.431
 21
33.259
 31
0.0
  0
LINE
  8
1
  6
CONTINUOUS
 10
287.338
 20
32.641
 30
0.0
 11
287.442
 21
33.263
 31
0.0
  0
LINE
  8
1
  6
CONTINUOUS
 10
286.978
 20
32.651
 30
0.0
 11
287.33
 21
32.651
 31
0.0
  0
LINE
  8
1
  6
CONTINUOUS
 10
286.983
 20
32.641
 30
0.0
 11
287.338
 21
32.641
 31
0.0
  0
ARC
  8
1
  6
CONTINUOUS
 10
286.622
 20
32.86725
 30
0.0
 40
0.41625
 50
211.300028
 51
328.699972
  0
ARC
  8
1
  6
CONTINUOUS
 10
286.622
 20
32.86725
 30
0.0
 40
0.42625
 50
212.058969
 51
327.941031
  0
LINE
  8
1
  6
CONTINUOUS
 10
285.913
 20
32.651
 30
0.0
 11
286.266
 21
32.651
 31
0.0
  0
LINE
  8
1
  6
CONTINUOUS
 10
285.905
 20
32.641
 30
0.0
 11
286.261
 21
32.641
 31
0.0
  0
LINE
  8
0
  6
BYBLOCK
 62
     0
 10
285.822
 20
33.3235
 30
0.0
 11
285.822
 21
34.633545
 31
0.0
  0
LINE
  8
0
  6
BYBLOCK
 62
     0
 10
287.422
 20
33.3235
 30
0.0
 11
287.422
 21
34.633545
 31
0.0
  0
LINE
  8
0
  6
BYBLOCK
 62
     0
 10
285.822
 20
34.603545
 30
0.0
 11
286.423071
 21
34.603545
 31
0.0
  0
LINE
  8
0
  6
BYBLOCK
 62
     0
 10
287.422
 20
34.603545
 30
0.0
 11
286.820929
 21
34.603545
 31
0.0
  0
LINE
  8
0
  6
BYBLOCK
 62
     0
 10
285.792
 20
34.573545
 30
0.0
 11
285.852
 21
34.633545
 31
0.0
  0
LINE
  8
0
  6
BYBLOCK
 62
     0
 10
287.392
 20
34.573545
 30
0.0
 11
287.452
 21
34.633545
 31
0.0
  0
TEXT
  8
0
  6
BYBLOCK
 62
     0
 10
286.491643
 20
34.566045
 30
0.0
 40
0.075
  1
1.60
  7
ROMANC
 72
     1
 11
286.622
 21
34.603545
 31
0.0
 73
     2
  0
POINT
  8
DEFPOINTS
  6
BYBLOCK
 62
     0
 10
285.822
 20
33.261
 30
0.0
  0
POINT
  8
DEFPOINTS
  6
BYBLOCK
 62
     0
 10
287.422
 20
33.261
 30
0.0
  0
POINT
  8
DEFPOINTS
  6
BYBLOCK
 62
     0
 10
287.422
 20
34.603545
 30
0.0
  0
ENDSEC
  0
EOF
