  0
SECTION
  2
HEADER
  9
$ACADVER
  1
AC1009
  9
$INSBASE
 10
0.0
 20
0.0
 30
0.0
  9
$EXTMIN
 10
281.396000
 20
29.897000
 30
-2147483.648000
  9
$EXTMAX
 10
291.896000
 20
44.747000
 30
0.000000
  9
$LIMMIN
 10
280.396000
 20
28.897000
  9
$LIMMAX
 10
292.896000
 20
43.747000
  9
$ORTHOMODE
 70
     0
  9
$REGENMODE
 70
     1
  9
$FILLMODE
 70
     1
  9
$QTEXTMODE
 70
     0
  9
$MIRRTEXT
 70
     1
  9
$DRAGMODE
 70
     2
  9
$LTSCALE
 40
1.0
  9
$OSMODE
 70
     0
  9
$ATTMODE
 70
     1
  9
$TEXTSIZE
 40
0.2
  9
$TRACEWID
 40
0.05
  9
$TEXTSTYLE
  7
STANDARD
  9
$CLAYER
  8
0
  9
$CELTYPE
  6
BYLAYER
  9
$CECOLOR
 62
   256
  9
$DIMSCALE
 40
1.0
  9
$DIMASZ
 40
0.18
  9
$DIMEXO
 40
0.0625
  9
$DIMDLI
 40
0.38
  9
$DIMRND
 40
0.0
  9
$DIMDLE
 40
0.0
  9
$DIMEXE
 40
0.18
  9
$DIMTP
 40
0.0
  9
$DIMTM
 40
0.0
  9
$DIMTXT
 40
0.18
  9
$DIMCEN
 40
0.09
  9
$DIMTSZ
 40
0.0
  9
$DIMTOL
 70
     0
  9
$DIMLIM
 70
     0
  9
$DIMTIH
 70
     1
  9
$DIMTOH
 70
     1
  9
$DIMSE1
 70
     0
  9
$DIMSE2
 70
     0
  9
$DIMTAD
 70
     0
  9
$DIMZIN
 70
     0
  9
$DIMBLK
  1

  9
$DIMASO
 70
     1
  9
$DIMSHO
 70
     1
  9
$DIMPOST
  1

  9
$DIMAPOST
  1

  9
$DIMALT
 70
     0
  9
$DIMALTD
 70
     2
  9
$DIMALTF
 40
25.4
  9
$DIMLFAC
 40
1.0
  9
$DIMTOFL
 70
     0
  9
$DIMTVP
 40
0.0
  9
$DIMTIX
 70
     0
  9
$DIMSOXD
 70
     0
  9
$DIMSAH
 70
     0
  9
$DIMBLK1
  1

  9
$DIMBLK2
  1

  9
$DIMSTYLE
  2
*UNNAMED
  9
$DIMCLRD
 70
     0
  9
$DIMCLRE
 70
     0
  9
$DIMCLRT
 70
     0
  9
$DIMTFAC
 40
1.0
  9
$DIMGAP
 40
0.09
  9
$LUNITS
 70
     2
  9
$LUPREC
 70
     4
  9
$AXISMODE
 70
     0
  9
$AXISUNIT
 10
0.0
 20
0.0
  9
$SKETCHINC
 40
0.1
  9
$FILLETRAD
 40
0.0
  9
$AUNITS
 70
     0
  9
$AUPREC
 70
     0
  9
$MENU
  1
acad
  9
$ELEVATION
 40
0.0
  9
$PELEVATION
 40
0.0
  9
$THICKNESS
 40
0.0
  9
$LIMCHECK
 70
     0
  9
$BLIPMODE
 70
     1
  9
$CHAMFERA
 40
0.0
  9
$CHAMFERB
 40
0.0
  9
$SKPOLY
 70
     0
  9
$TDCREATE
 40
2448315.373408102
  9
$TDUPDATE
 40
2448315.373408102
  9
$TDINDWG
 40
0.0000000000
  9
$TDUSRTIMER
 40
0.0000000000
  9
$USRTIMER
 70
     1
  9
$ANGBASE
 50
0.0
  9
$ANGDIR
 70
     0
  9
$PDMODE
 70
     0
  9
$PDSIZE
 40
0.0
  9
$PLINEWID
 40
0.0
  9
$COORDS
 70
     0
  9
$SPLFRAME
 70
     0
  9
$SPLINETYPE
 70
     6
  9
$SPLINESEGS
 70
     8
  9
$ATTDIA
 70
     0
  9
$ATTREQ
 70
     1
  9
$HANDLING
 70
     0
  9
$HANDSEED
  5
0
  9
$SURFTAB1
 70
     6
  9
$SURFTAB2
 70
     6
  9
$SURFTYPE
 70
     6
  9
$SURFU
 70
     6
  9
$SURFV
 70
     6
  9
$UCSNAME
  2

  9
$UCSORG
 10
0.0
 20
0.0
 30
0.0
  9
$UCSXDIR
 10
1.0
 20
0.0
 30
0.0
  9
$UCSYDIR
 10
0.0
 20
1.0
 30
0.0
  9
$PUCSNAME
  2

  9
$PUCSORG
 10
0.0
 20
0.0
 30
0.0
  9
$PUCSXDIR
 10
1.0
 20
0.0
 30
0.0
  9
$PUCSYDIR
 10
0.0
 20
1.0
 30
0.0
  9
$USERI1
 70
     0
  9
$USERI2
 70
     0
  9
$USERI3
 70
     0
  9
$USERI4
 70
     0
  9
$USERI5
 70
     0
  9
$USERR1
 40
0.0
  9
$USERR2
 40
0.0
  9
$USERR3
 40
0.0
  9
$USERR4
 40
0.0
  9
$USERR5
 40
0.0
  9
$WORLDVIEW
 70
     1
  9
$SHADEDGE
 70
     3
  9
$SHADEDIF
 70
    70
  9
$TILEMODE
 70
     1
  9
$MAXACTVP
 70
    16
  9
$PINSBASE
 10
0.0
 20
0.0
 30
0.0
  9
$PLIMCHECK
 70
     0
  9
$PEXTMIN
 10
1.000000E+20
 20
1.000000E+20
 30
1.000000E+20
  9
$PEXTMAX
 10
-1.000000E+20
 20
-1.000000E+20
 30
-1.000000E+20
  9
$PLIMMIN
 10
0.0
 20
0.0
  9
$PLIMMAX
 10
12.0
 20
9.0
  9
$UNITMODE
 70
     0
  9
$VISRETAIN
 70
     0
  0
ENDSEC
  0
SECTION
  2
TABLES
  0
TABLE
  2
LTYPE
 70
    1
  0
LTYPE
  2
CONTINUOUS
 70
    64
3
Solid line
 72
    65
 73
0
 40
0.000000
  0
ENDTAB
  0
TABLE
  2
LAYER
 70
    8
  0
LAYER
  2
0
 70
    64
 62
7
  6
CONTINUOUS
  0
LAYER
  2
1
 70
    64
 62
7
  6
CONTINUOUS
  0
LAYER
  2
7
 70
    64
 62
7
  6
CONTINUOUS
  0
LAYER
  2
8
 70
    64
 62
7
  6
CONTINUOUS
  0
LAYER
  2
9
 70
    64
 62
7
  6
CONTINUOUS
  0
LAYER
  2
22
 70
    64
 62
7
  6
CONTINUOUS
  0
LAYER
  2
25
 70
    64
 62
7
  6
CONTINUOUS
  0
LAYER
  2
0
 70
    64
 62
7
  6
CONTINUOUS
  0
ENDTAB
  0
TABLE
  2
STYLE
 70
    1
  0
STYLE
  2
ROMANC
70
     0
 40
0.0
 41
1.0
 50
0.0
 71
     0
 42
0.2
  3
ROMANC
  4

  0
ENDTAB
  0
ENDSEC
  0
SECTION
  2
BLOCKS
  0
ENDSEC
  0
SECTION
  2
ENTITIES
  0
TEXT
  8
0
  6
CONTINUOUS
 40
0.100000
 10
286.909000
 20
41.324000
  1
2
  7
ROMANC
  0
TEXT
  8
0
  6
CONTINUOUS
 40
0.300000
 10
283.926000
 20
41.768000
  1
ESCALA  1:50
  7
ROMANC
  0
POLYLINE
  8
0
  6
CONTINUOUS
 66
     1
 70
     1
  0
VERTEX
  8
0
  6
CONTINUOUS
 10
281.396000
 20
44.747000
  0
VERTEX
  8
0
  6
CONTINUOUS
 10
291.896000
 20
44.747000
  0
VERTEX
  8
0
  6
CONTINUOUS
 10
291.896000
 20
29.897000
  0
VERTEX
  8
0
  6
CONTINUOUS
 10
281.396000
 20
29.897000
  0
SEQEND
  8
0
  0
TEXT
  8
0
  6
CONTINUOUS
 40
0.300000
 10
283.926000
 20
42.381000
  1
TIPUS   T196B
  7
ROMANC
  0
ARC
  8
1
  6
CONTINUOUS
 10
286.776000
 20
33.265000
 40
0.800000
 50
360.000000
 51
540.000000
  0
LINE
  8
1
  6
CONTINUOUS
 10
285.976000
 20
33.265000
 11
285.976000
 21
32.765000
  0
TEXT
  8
0
  6
CONTINUOUS
 40
0.300000
 10
283.922000
 20
40.529000
  1
P = 54 dm
  7
ROMANC
  0
TEXT
  8
0
  6
CONTINUOUS
 40
0.300000
 10
283.945000
 20
41.099000
  1
S = 196 dm
  7
ROMANC
  0
LINE
  8
1
  6
CONTINUOUS
 10
285.976000
 20
32.765000
 11
286.426000
 21
32.765000
  0
TEXT
  8
1
  6
CONTINUOUS
 40
0.075000
 10
286.079000
 20
32.354000
  1
0.45
  7
ROMANC
  0
LINE
  8
1
  6
CONTINUOUS
 10
285.826000
 20
32.391000
 11
285.976000
 21
32.391000
  0
LINE
  8
1
  6
CONTINUOUS
 10
286.576000
 20
32.391000
 11
286.426000
 21
32.391000
  0
LINE
  8
1
  6
CONTINUOUS
 10
286.014000
 20
32.410000
 11
285.938000
 21
32.372000
  0
LINE
  8
1
  6
CONTINUOUS
 10
286.388000
 20
32.372000
 11
286.464000
 21
32.410000
  0
LINE
  8
1
  6
CONTINUOUS
 10
285.976000
 20
32.727000
 11
285.976000
 21
32.353000
  0
LINE
  8
1
  6
CONTINUOUS
 10
286.426000
 20
32.727000
 11
286.426000
 21
32.353000
  0
LINE
  8
1
  6
CONTINUOUS
 10
287.126000
 20
32.765000
 11
287.576000
 21
32.765000
  0
TEXT
  8
1
  6
CONTINUOUS
 40
0.075000
 10
287.229000
 20
32.354000
  1
0.45
  7
ROMANC
  0
LINE
  8
1
  6
CONTINUOUS
 10
286.976000
 20
32.391000
 11
287.126000
 21
32.391000
  0
LINE
  8
1
  6
CONTINUOUS
 10
287.726000
 20
32.391000
 11
287.576000
 21
32.391000
  0
LINE
  8
1
  6
CONTINUOUS
 10
287.164000
 20
32.410000
 11
287.088000
 21
32.372000
  0
LINE
  8
1
  6
CONTINUOUS
 10
287.538000
 20
32.372000
 11
287.614000
 21
32.410000
  0
LINE
  8
1
  6
CONTINUOUS
 10
287.126000
 20
32.727000
 11
287.126000
 21
32.353000
  0
LINE
  8
1
  6
CONTINUOUS
 10
287.576000
 20
32.727000
 11
287.576000
 21
32.353000
  0
ARC
  8
1
  6
CONTINUOUS
 10
286.776000
 20
32.819167
 40
0.354167
 50
188.797411
 51
351.202589
  0
TEXT
  8
1
  6
CONTINUOUS
 40
0.075000
 10
286.657000
 20
32.208000
  1
0.70
  7
ROMANC
  0
LINE
  8
1
  6
CONTINUOUS
 10
286.619000
 20
32.245000
 11
286.426000
 21
32.245000
  0
LINE
  8
1
  6
CONTINUOUS
 10
286.931000
 20
32.245000
 11
287.126000
 21
32.245000
  0
LINE
  8
1
  6
CONTINUOUS
 10
286.388000
 20
32.226000
 11
286.464000
 21
32.264000
  0
LINE
  8
1
  6
CONTINUOUS
 10
287.164000
 20
32.264000
 11
287.088000
 21
32.226000
  0
LINE
  8
1
  6
CONTINUOUS
 10
286.426000
 20
32.727000
 11
286.426000
 21
32.207000
  0
LINE
  8
1
  6
CONTINUOUS
 10
287.126000
 20
32.727000
 11
287.126000
 21
32.207000
  0
TEXT
  8
1
  6
CONTINUOUS
 40
0.075000
 10
286.666000
 20
32.072000
  1
1.60
  7
ROMANC
  0
LINE
  8
1
  6
CONTINUOUS
 10
286.628000
 20
32.110000
 11
285.976000
 21
32.110000
  0
LINE
  8
1
  6
CONTINUOUS
 10
286.923000
 20
32.110000
 11
287.576000
 21
32.110000
  0
LINE
  8
1
  6
CONTINUOUS
 10
285.938000
 20
32.091000
 11
286.014000
 21
32.129000
  0
LINE
  8
1
  6
CONTINUOUS
 10
287.614000
 20
32.129000
 11
287.538000
 21
32.091000
  0
LINE
  8
1
  6
CONTINUOUS
 10
285.976000
 20
32.727000
 11
285.976000
 21
32.072000
  0
LINE
  8
1
  6
CONTINUOUS
 10
287.576000
 20
32.727000
 11
287.576000
 21
32.072000
  0
TEXT
  8
1
  6
CONTINUOUS
 40
0.075000
 10
287.746000
 20
32.904000
  1
0.30
 50
90.000000
  7
ROMANC
  0
LINE
  8
1
  6
CONTINUOUS
 10
287.708000
 20
32.315000
 11
287.708000
 21
32.465000
  0
LINE
  8
1
  6
CONTINUOUS
 10
287.708000
 20
32.866000
 11
287.708000
 21
32.765000
  0
LINE
  8
1
  6
CONTINUOUS
 10
287.689000
 20
32.502000
 11
287.727000
 21
32.428000
  0
LINE
  8
1
  6
CONTINUOUS
 10
287.727000
 20
32.728000
 11
287.689000
 21
32.802000
  0
LINE
  8
1
  6
CONTINUOUS
 10
286.814000
 20
32.465000
 11
287.746000
 21
32.465000
  0
LINE
  8
1
  6
CONTINUOUS
 10
287.164000
 20
32.765000
 11
287.746000
 21
32.765000
  0
LINE
  8
1
  6
CONTINUOUS
 10
287.576000
 20
32.765000
 11
287.576000
 21
33.265000
  0
TEXT
  8
1
  6
CONTINUOUS
 40
0.075000
 10
287.900000
 20
32.896000
  1
0.50
 50
90.000000
  7
ROMANC
  0
LINE
  8
1
  6
CONTINUOUS
 10
287.862000
 20
32.615000
 11
287.862000
 21
32.765000
  0
LINE
  8
1
  6
CONTINUOUS
 10
287.862000
 20
33.415000
 11
287.862000
 21
33.265000
  0
LINE
  8
1
  6
CONTINUOUS
 10
287.843000
 20
32.802000
 11
287.881000
 21
32.728000
  0
LINE
  8
1
  6
CONTINUOUS
 10
287.881000
 20
33.228000
 11
287.843000
 21
33.302000
  0
LINE
  8
1
  6
CONTINUOUS
 10
287.614000
 20
32.765000
 11
287.900000
 21
32.765000
  0
LINE
  8
1
  6
CONTINUOUS
 10
287.614000
 20
33.265000
 11
287.900000
 21
33.265000
  0
TEXT
  8
1
  6
CONTINUOUS
 40
0.075000
 10
287.900000
 20
33.546000
  1
0.80
 50
90.000000
  7
ROMANC
  0
LINE
  8
1
  6
CONTINUOUS
 10
287.862000
 20
33.508000
 11
287.862000
 21
33.265000
  0
LINE
  8
1
  6
CONTINUOUS
 10
287.862000
 20
33.820000
 11
287.862000
 21
34.065000
  0
LINE
  8
1
  6
CONTINUOUS
 10
287.881000
 20
33.228000
 11
287.843000
 21
33.302000
  0
LINE
  8
1
  6
CONTINUOUS
 10
287.843000
 20
34.102000
 11
287.881000
 21
34.028000
  0
LINE
  8
1
  6
CONTINUOUS
 10
286.814000
 20
34.065000
 11
287.900000
 21
34.065000
  0
TEXT
  8
1
  6
CONTINUOUS
 40
0.075000
 10
288.080000
 20
33.155000
  1
1.60
 50
90.000000
  7
ROMANC
  0
LINE
  8
1
  6
CONTINUOUS
 10
288.043000
 20
33.117000
 11
288.043000
 21
32.465000
  0
LINE
  8
1
  6
CONTINUOUS
 10
288.043000
 20
33.412000
 11
288.043000
 21
34.065000
  0
LINE
  8
1
  6
CONTINUOUS
 10
288.062000
 20
32.428000
 11
288.024000
 21
32.502000
  0
LINE
  8
1
  6
CONTINUOUS
 10
288.024000
 20
34.102000
 11
288.062000
 21
34.028000
  0
LINE
  8
1
  6
CONTINUOUS
 10
286.814000
 20
32.465000
 11
288.081000
 21
32.465000
  0
LINE
  8
1
  6
CONTINUOUS
 10
286.814000
 20
34.065000
 11
288.081000
 21
34.065000
  0
ARC
  8
1
  6
CONTINUOUS
 10
286.776000
 20
33.265000
 40
0.810000
 50
360.000000
 51
540.000000
  0
ARC
  8
1
  6
CONTINUOUS
 10
286.776000
 20
33.265000
 40
0.820000
 50
360.000000
 51
540.000000
  0
LINE
  8
1
  6
CONTINUOUS
 10
285.966000
 20
33.265000
 11
285.966000
 21
32.755000
  0
LINE
  8
1
  6
CONTINUOUS
 10
285.956000
 20
33.265000
 11
285.956000
 21
32.745000
  0
LINE
  8
1
  6
CONTINUOUS
 10
285.966000
 20
32.755000
 11
286.418000
 21
32.755000
  0
LINE
  8
1
  6
CONTINUOUS
 10
285.956000
 20
32.745000
 11
286.409000
 21
32.745000
  0
ARC
  8
1
  6
CONTINUOUS
 10
286.776000
 20
32.819167
 40
0.364167
 50
190.148578
 51
349.851422
  0
ARC
  8
1
  6
CONTINUOUS
 10
286.776000
 20
32.819167
 40
0.374167
 50
191.432786
 51
348.567214
  0
LINE
  8
1
  6
CONTINUOUS
 10
287.134000
 20
32.755000
 11
287.586000
 21
32.755000
  0
LINE
  8
1
  6
CONTINUOUS
 10
287.143000
 20
32.745000
 11
287.596000
 21
32.745000
  0
LINE
  8
1
  6
CONTINUOUS
 10
287.586000
 20
32.755000
 11
287.586000
 21
33.265000
  0
LINE
  8
1
  6
CONTINUOUS
 10
287.596000
 20
32.745000
 11
287.596000
 21
33.265000
  0
ENDSEC
  0
EOF
