  0
SECTION
  2
HEADER
  9
$ACADVER
  1
AC1009
  9
$INSBASE
 10
135.256635
 20
216.151256
 30
0.0
  9
$EXTMIN
 10
135.256635
 20
216.151256
 30
0.0
  9
$EXTMAX
 10
145.756635
 20
231.001256
 30
0.0
  9
$LIMMIN
 10
0.0
 20
0.0
  9
$LIMMAX
 10
410.0
 20
287.0
  9
$ORTHOMODE
 70
     1
  9
$REGENMODE
 70
     1
  9
$FILLMODE
 70
     1
  9
$QTEXTMODE
 70
     0
  9
$MIRRTEXT
 70
     1
  9
$DRAGMODE
 70
     2
  9
$LTSCALE
 40
25.0
  9
$OSMODE
 70
    32
  9
$ATTMODE
 70
     1
  9
$TEXTSIZE
 40
0.1
  9
$TRACEWID
 40
0.3
  9
$TEXTSTYLE
  7
STANDARD
  9
$CLAYER
  8
0
  9
$CELTYPE
  6
BYLAYER
  9
$CECOLOR
 62
   256
  9
$DIMSCALE
 40
1.0
  9
$DIMASZ
 40
3.5
  9
$DIMEXO
 40
0.1
  9
$DIMDLI
 40
7.0
  9
$DIMRND
 40
0.0
  9
$DIMDLE
 40
0.0
  9
$DIMEXE
 40
1.8
  9
$DIMTP
 40
0.0
  9
$DIMTM
 40
0.0
  9
$DIMTXT
 40
3.5
  9
$DIMCEN
 40
1.5
  9
$DIMTSZ
 40
0.0
  9
$DIMTOL
 70
     0
  9
$DIMLIM
 70
     0
  9
$DIMTIH
 70
     0
  9
$DIMTOH
 70
     0
  9
$DIMSE1
 70
     0
  9
$DIMSE2
 70
     0
  9
$DIMTAD
 70
     0
  9
$DIMZIN
 70
     0
  9
$DIMBLK
  1

  9
$DIMASO
 70
     1
  9
$DIMSHO
 70
     0
  9
$DIMPOST
  1

  9
$DIMAPOST
  1

  9
$DIMALT
 70
     0
  9
$DIMALTD
 70
     2
  9
$DIMALTF
 40
25.4
  9
$DIMLFAC
 40
1.0
  9
$DIMTOFL
 70
     0
  9
$DIMTVP
 40
0.0
  9
$DIMTIX
 70
     0
  9
$DIMSOXD
 70
     0
  9
$DIMSAH
 70
     0
  9
$DIMBLK1
  1

  9
$DIMBLK2
  1

  9
$DIMSTYLE
  2
*UNNAMED
  9
$DIMCLRD
 70
     0
  9
$DIMCLRE
 70
     0
  9
$DIMCLRT
 70
     0
  9
$DIMTFAC
 40
1.0
  9
$DIMGAP
 40
0.09
  9
$LUNITS
 70
     2
  9
$LUPREC
 70
     2
  9
$SKETCHINC
 40
1.0
  9
$FILLETRAD
 40
0.0
  9
$AUNITS
 70
     0
  9
$AUPREC
 70
     0
  9
$MENU
  1
acad
  9
$ELEVATION
 40
0.0
  9
$PELEVATION
 40
0.0
  9
$THICKNESS
 40
0.0
  9
$LIMCHECK
 70
     0
  9
$BLIPMODE
 70
     0
  9
$CHAMFERA
 40
0.0
  9
$CHAMFERB
 40
0.0
  9
$SKPOLY
 70
     0
  9
$TDCREATE
 40
2449960.546446296
  9
$TDUPDATE
 40
2450723.697831481
  9
$TDINDWG
 40
0.0016254630
  9
$TDUSRTIMER
 40
0.0016254630
  9
$USRTIMER
 70
     1
  9
$ANGBASE
 50
0.0
  9
$ANGDIR
 70
     0
  9
$PDMODE
 70
     0
  9
$PDSIZE
 40
0.0
  9
$PLINEWID
 40
0.0
  9
$COORDS
 70
     2
  9
$SPLFRAME
 70
     0
  9
$SPLINETYPE
 70
     6
  9
$SPLINESEGS
 70
     8
  9
$ATTDIA
 70
     0
  9
$ATTREQ
 70
     1
  9
$HANDLING
 70
     0
  9
$HANDSEED
  5
0
  9
$SURFTAB1
 70
     6
  9
$SURFTAB2
 70
     6
  9
$SURFTYPE
 70
     6
  9
$SURFU
 70
     6
  9
$SURFV
 70
     6
  9
$UCSNAME
  2

  9
$UCSORG
 10
0.0
 20
0.0
 30
0.0
  9
$UCSXDIR
 10
1.0
 20
0.0
 30
0.0
  9
$UCSYDIR
 10
0.0
 20
1.0
 30
0.0
  9
$PUCSNAME
  2

  9
$PUCSORG
 10
0.0
 20
0.0
 30
0.0
  9
$PUCSXDIR
 10
1.0
 20
0.0
 30
0.0
  9
$PUCSYDIR
 10
0.0
 20
1.0
 30
0.0
  9
$USERI1
 70
     0
  9
$USERI2
 70
     0
  9
$USERI3
 70
     0
  9
$USERI4
 70
     0
  9
$USERI5
 70
     0
  9
$USERR1
 40
0.0
  9
$USERR2
 40
0.0
  9
$USERR3
 40
0.0
  9
$USERR4
 40
0.0
  9
$USERR5
 40
0.0
  9
$WORLDVIEW
 70
     1
  9
$SHADEDGE
 70
     3
  9
$SHADEDIF
 70
    70
  9
$TILEMODE
 70
     1
  9
$MAXACTVP
 70
    16
  9
$PINSBASE
 10
0.0
 20
0.0
 30
0.0
  9
$PLIMCHECK
 70
     0
  9
$PEXTMIN
 10
1.000000E+20
 20
1.000000E+20
 30
1.000000E+20
  9
$PEXTMAX
 10
-1.000000E+20
 20
-1.000000E+20
 30
-1.000000E+20
  9
$PLIMMIN
 10
0.0
 20
0.0
  9
$PLIMMAX
 10
12.0
 20
9.0
  9
$UNITMODE
 70
     0
  9
$VISRETAIN
 70
     0
  9
$PLINEGEN
 70
     0
  9
$PSLTSCALE
 70
     0
  9
$TREEDEPTH
 70
  3020
  9
$DWGCODEPAGE
  3
iso8859-1
  0
ENDSEC
  0
SECTION
  2
TABLES
  0
TABLE
  2
VPORT
 70
     1
  0
VPORT
  2
*ACTIVE
 70
     0
 10
0.0
 20
0.0
 11
1.0
 21
1.0
 12
147.218485
 22
223.576256
 13
0.0
 23
0.0
 14
1.0
 24
1.0
 15
10.0
 25
10.0
 16
0.0
 26
0.0
 36
1.0
 17
0.0
 27
0.0
 37
0.0
 40
14.85
 41
1.611024
 42
50.0
 43
0.0
 44
0.0
 50
0.0
 51
0.0
 71
     0
 72
   100
 73
     1
 74
     0
 75
     0
 76
     0
 77
     0
 78
     0
  0
ENDTAB
  0
TABLE
  2
LTYPE
 70
     1
  0
LTYPE
  2
CONTINUOUS
 70
    64
  3
Solid Line
 72
    65
 73
     0
 40
0.0
  0
ENDTAB
  0
TABLE
  2
LAYER
 70
     5
  0
LAYER
  2
0
 70
    64
 62
     7
  6
CONTINUOUS
  0
LAYER
  2
SECCIO
 70
    64
 62
     7
  6
CONTINUOUS
  0
LAYER
  2
MESURA
 70
    64
 62
     7
  6
CONTINUOUS
  0
LAYER
  2
TEXTEP
 70
    64
 62
     7
  6
CONTINUOUS
  0
LAYER
  2
TEXTEG
 70
    64
 62
     7
  6
CONTINUOUS
  0
ENDTAB
  0
TABLE
  2
STYLE
 70
     2
  0
STYLE
  2
STANDARD
 70
    64
 40
0.0
 41
1.0
 50
0.0
 71
     0
 42
0.1
  3
txt
  4

  0
STYLE
  2
ROMANC
 70
    64
 40
0.0
 41
1.0
 50
0.0
 71
     0
 42
0.1
  3
romanc
  4

  0
ENDTAB
  0
TABLE
  2
VIEW
 70
     0
  0
ENDTAB
  0
TABLE
  2
UCS
 70
     0
  0
ENDTAB
  0
TABLE
  2
APPID
 70
     1
  0
APPID
  2
ACAD
 70
    64
  0
ENDTAB
  0
TABLE
  2
DIMSTYLE
 70
     0
  0
ENDTAB
  0
ENDSEC
  0
SECTION
  2
BLOCKS
  0
ENDSEC
  0
SECTION
  2
ENTITIES
  0
TEXT
  8
0
 10
136.815519
 20
227.183888
 30
0.0
 40
0.3
  1
P = 179.7 dm
  7
ROMANC
  0
TEXT
  8
0
 10
136.818347
 20
227.857386
 30
0.0
 40
0.3
  1
S = 1905 dm
  7
ROMANC
  0
TEXT
  8
TEXTEG
 10
136.797045
 20
229.401732
 30
0.0
 40
0.3
  1
TIPUS     T1905
  0
TEXT
  8
TEXTEG
 10
136.864446
 20
228.637166
 30
0.0
 40
0.3
  1
ESCALA    1:50
  0
LINE
  8
MESURA
 10
137.370594
 20
220.912422
 30
0.0
 11
143.370594
 21
220.912422
 31
0.0
  0
LINE
  8
0
 10
135.256635
 20
216.151256
 30
0.0
 11
145.756635
 21
216.151256
 31
0.0
  0
LINE
  8
0
 10
135.256635
 20
231.001256
 30
0.0
 11
145.756635
 21
231.001256
 31
0.0
  0
LINE
  8
0
 10
135.256635
 20
231.001256
 30
0.0
 11
135.256635
 21
216.151256
 31
0.0
  0
LINE
  8
MESURA
 10
137.370594
 20
220.912422
 30
0.0
 11
137.339126
 21
220.876112
 31
0.0
  0
LINE
  8
0
 10
137.412178
 20
220.956669
 30
0.0
 11
137.370594
 21
220.912422
 31
0.0
  0
LINE
  8
MESURA
 10
137.370594
 20
221.412422
 30
0.0
 11
137.370594
 21
220.912422
 31
0.0
  0
LINE
  8
MESURA
 10
143.870594
 20
224.660528
 30
0.0
 11
143.870594
 21
221.412422
 31
0.0
  0
LINE
  8
0
 10
145.756635
 20
231.001256
 30
0.0
 11
145.756635
 21
216.151256
 31
0.0
  0
TEXT
  8
TEXTEP
 10
140.230006
 20
220.734439
 30
0.0
 40
0.1
  1
6.0
  0
LINE
  8
MESURA
 10
143.834382
 20
221.384869
 30
0.0
 11
143.917772
 21
221.445479
 31
0.0
  0
LINE
  8
MESURA
 10
143.370594
 20
220.912422
 30
0.0
 11
143.327806
 21
220.873129
 31
0.0
  0
LINE
  8
0
 10
143.408633
 20
220.956149
 30
0.0
 11
143.370594
 21
220.912422
 31
0.0
  0
LINE
  8
MESURA
 10
143.370594
 20
221.412422
 30
0.0
 11
143.370594
 21
220.912422
 31
0.0
  0
LINE
  8
MESURA
 10
143.370594
 20
221.412422
 30
0.0
 11
143.970594
 21
221.412422
 31
0.0
  0
TEXT
  8
TEXTEP
 10
143.934071
 20
222.857224
 30
0.0
 40
0.1
  1
2.9
  0
LINE
  8
MESURA
 10
143.829196
 20
224.582015
 30
0.0
 11
143.912586
 21
224.642625
 31
0.0
  0
LINE
  8
MESURA
 10
142.885665
 20
224.60338
 30
0.0
 11
142.886654
 21
224.962422
 31
0.0
  0
LINE
  8
MESURA
 10
142.866516
 20
224.912422
 30
0.0
 11
143.452625
 21
224.912422
 31
0.0
  0
TEXT
  8
TEXTEP
 10
143.919321
 20
224.407581
 30
0.0
 40
0.1
  1
0.3
  0
TEXT
  8
TEXTEP
 10
143.030101
 20
224.969385
 30
0.0
 40
0.1
  1
0.5
 50
0.5
  0
LINE
  8
MESURA
 10
143.830876
 20
224.281497
 30
0.0
 11
143.914266
 21
224.342107
 31
0.0
  0
LINE
  8
MESURA
 10
142.843651
 20
224.881704
 30
0.0
 11
142.927041
 21
224.942314
 31
0.0
  0
LINE
  8
MESURA
 10
143.33293
 20
224.881704
 30
0.0
 11
143.41632
 21
224.942314
 31
0.0
  0
LINE
  8
MESURA
 10
143.373621
 20
224.319865
 30
0.0
 11
143.373621
 21
224.962422
 31
0.0
  0
LINE
  8
MESURA
 10
142.886516
 20
224.612422
 30
0.0
 11
143.986516
 21
224.612422
 31
0.0
  0
LINE
  8
MESURA
 10
143.370594
 20
224.312422
 30
0.0
 11
143.970594
 21
224.312422
 31
0.0
  0
TEXT
  8
0
 10
140.326179
 20
228.163302
 30
0.0
 40
0.1
  1
2
  7
ROMANC
  0
LINE
  8
MESURA
 10
144.286278
 20
224.660528
 30
0.0
 11
144.286278
 21
221.412422
 31
0.0
  0
LINE
  8
MESURA
 10
143.786278
 20
221.412422
 30
0.0
 11
144.386278
 21
221.412422
 31
0.0
  0
LINE
  8
MESURA
 10
144.250067
 20
221.384869
 30
0.0
 11
144.333457
 21
221.445479
 31
0.0
  0
LINE
  8
MESURA
 10
143.302201
 20
224.612422
 30
0.0
 11
144.402201
 21
224.612422
 31
0.0
  0
LINE
  8
MESURA
 10
144.244881
 20
224.582015
 30
0.0
 11
144.328271
 21
224.642625
 31
0.0
  0
TEXT
  8
TEXTEP
 10
144.349756
 20
222.857224
 30
0.0
 40
0.1
  1
3.2
  0
LINE
  8
SECCIO
 10
143.360594
 20
221.422422
 30
0.0
 11
137.380594
 21
221.422422
 31
0.0
  0
LINE
  8
SECCIO
 10
137.380594
 20
221.422422
 30
0.0
 11
137.380594
 21
224.306761
 31
0.0
  0
LINE
  8
SECCIO
 10
137.380594
 20
224.306761
 30
0.0
 11
137.873363
 21
224.602422
 31
0.0
  0
LINE
  8
SECCIO
 10
137.873363
 20
224.602422
 30
0.0
 11
142.867824
 21
224.602422
 31
0.0
  0
LINE
  8
SECCIO
 10
142.867824
 20
224.602422
 30
0.0
 11
143.360594
 21
224.306761
 31
0.0
  0
LINE
  8
SECCIO
 10
143.360594
 20
224.306761
 30
0.0
 11
143.360594
 21
221.422422
 31
0.0
  0
LINE
  8
SECCIO
 10
143.380594
 20
221.402422
 30
0.0
 11
137.360594
 21
221.402422
 31
0.0
  0
LINE
  8
SECCIO
 10
137.360594
 20
221.402422
 30
0.0
 11
137.360594
 21
224.318084
 31
0.0
  0
LINE
  8
SECCIO
 10
137.360594
 20
224.318084
 30
0.0
 11
137.867824
 21
224.622422
 31
0.0
  0
LINE
  8
SECCIO
 10
137.867824
 20
224.622422
 30
0.0
 11
142.873363
 21
224.622422
 31
0.0
  0
LINE
  8
SECCIO
 10
142.873363
 20
224.622422
 30
0.0
 11
143.380594
 21
224.318084
 31
0.0
  0
LINE
  8
SECCIO
 10
143.380594
 20
224.318084
 30
0.0
 11
143.380594
 21
221.402422
 31
0.0
  0
LINE
  8
SECCIO
 10
143.370594
 20
221.412422
 30
0.0
 11
137.370594
 21
221.412422
 31
0.0
  0
LINE
  8
SECCIO
 10
137.370594
 20
221.412422
 30
0.0
 11
137.370594
 21
224.312422
 31
0.0
  0
LINE
  8
SECCIO
 10
137.370594
 20
224.312422
 30
0.0
 11
137.870594
 21
224.612422
 31
0.0
  0
LINE
  8
SECCIO
 10
137.870594
 20
224.612422
 30
0.0
 11
142.870594
 21
224.612422
 31
0.0
  0
LINE
  8
SECCIO
 10
142.870594
 20
224.612422
 30
0.0
 11
143.370594
 21
224.312422
 31
0.0
  0
LINE
  8
SECCIO
 10
143.370594
 20
224.312422
 30
0.0
 11
143.370594
 21
221.412422
 31
0.0
  0
ENDSEC
  0
EOF
