  0
SECTION
  2
HEADER
  9
$ACADVER
  1
AC1009
  9
$INSBASE
 10
0.0
 20
0.0
 30
0.0
  9
$EXTMIN
 10
281.396
 20
29.897
 30
0.0
  9
$EXTMAX
 10
291.896
 20
44.747
 30
0.0
  9
$LIMMIN
 10
280.396
 20
28.897
  9
$LIMMAX
 10
292.896
 20
43.747
  9
$ORTHOMODE
 70
     0
  9
$REGENMODE
 70
     1
  9
$FILLMODE
 70
     1
  9
$QTEXTMODE
 70
     0
  9
$MIRRTEXT
 70
     1
  9
$DRAGMODE
 70
     2
  9
$LTSCALE
 40
1.0
  9
$OSMODE
 70
     0
  9
$ATTMODE
 70
     1
  9
$TEXTSIZE
 40
0.2
  9
$TRACEWID
 40
0.05
  9
$TEXTSTYLE
  7
ROMANC
  9
$CLAYER
  8
0
  9
$CELTYPE
  6
BYLAYER
  9
$CECOLOR
 62
   256
  9
$DIMSCALE
 40
1.0
  9
$DIMASZ
 40
0.0
  9
$DIMEXO
 40
0.0625
  9
$DIMDLI
 40
0.38
  9
$DIMRND
 40
0.0
  9
$DIMDLE
 40
0.0
  9
$DIMEXE
 40
0.03
  9
$DIMTP
 40
0.0
  9
$DIMTM
 40
0.0
  9
$DIMTXT
 40
0.075
  9
$DIMCEN
 40
0.09
  9
$DIMTSZ
 40
0.03
  9
$DIMTOL
 70
     0
  9
$DIMLIM
 70
     0
  9
$DIMTIH
 70
     1
  9
$DIMTOH
 70
     1
  9
$DIMSE1
 70
     0
  9
$DIMSE2
 70
     0
  9
$DIMTAD
 70
     0
  9
$DIMZIN
 70
     0
  9
$DIMBLK
  1

  9
$DIMASO
 70
     1
  9
$DIMSHO
 70
     1
  9
$DIMPOST
  1

  9
$DIMAPOST
  1

  9
$DIMALT
 70
     0
  9
$DIMALTD
 70
     2
  9
$DIMALTF
 40
25.4
  9
$DIMLFAC
 40
1.0
  9
$DIMTOFL
 70
     0
  9
$DIMTVP
 40
0.0
  9
$DIMTIX
 70
     0
  9
$DIMSOXD
 70
     0
  9
$DIMSAH
 70
     0
  9
$DIMBLK1
  1

  9
$DIMBLK2
  1

  9
$DIMSTYLE
  2
*UNNAMED
  9
$DIMCLRD
 70
     0
  9
$DIMCLRE
 70
     0
  9
$DIMCLRT
 70
     0
  9
$DIMTFAC
 40
2.4
  9
$DIMGAP
 40
0.09
  9
$LUNITS
 70
     2
  9
$LUPREC
 70
     4
  9
$SKETCHINC
 40
0.1
  9
$FILLETRAD
 40
0.0
  9
$AUNITS
 70
     0
  9
$AUPREC
 70
     0
  9
$MENU
  1
acad
  9
$ELEVATION
 40
0.0
  9
$PELEVATION
 40
0.0
  9
$THICKNESS
 40
0.0
  9
$LIMCHECK
 70
     0
  9
$BLIPMODE
 70
     1
  9
$CHAMFERA
 40
0.0
  9
$CHAMFERB
 40
0.0
  9
$SKPOLY
 70
     0
  9
$TDCREATE
 40
2448315.373408102
  9
$TDUPDATE
 40
2448315.373408102
  9
$TDINDWG
 40
0.0000000000
  9
$TDUSRTIMER
 40
0.0000000000
  9
$USRTIMER
 70
     1
  9
$ANGBASE
 50
0.0
  9
$ANGDIR
 70
     0
  9
$PDMODE
 70
     0
  9
$PDSIZE
 40
0.0
  9
$PLINEWID
 40
0.0
  9
$COORDS
 70
     0
  9
$SPLFRAME
 70
     0
  9
$SPLINETYPE
 70
     6
  9
$SPLINESEGS
 70
     8
  9
$ATTDIA
 70
     0
  9
$ATTREQ
 70
     1
  9
$HANDLING
 70
     0
  9
$HANDSEED
  5
0
  9
$SURFTAB1
 70
     6
  9
$SURFTAB2
 70
     6
  9
$SURFTYPE
 70
     6
  9
$SURFU
 70
     6
  9
$SURFV
 70
     6
  9
$UCSNAME
  2

  9
$UCSORG
 10
0.0
 20
0.0
 30
0.0
  9
$UCSXDIR
 10
1.0
 20
0.0
 30
0.0
  9
$UCSYDIR
 10
0.0
 20
1.0
 30
0.0
  9
$PUCSNAME
  2

  9
$PUCSORG
 10
0.0
 20
0.0
 30
0.0
  9
$PUCSXDIR
 10
1.0
 20
0.0
 30
0.0
  9
$PUCSYDIR
 10
0.0
 20
1.0
 30
0.0
  9
$USERI1
 70
     0
  9
$USERI2
 70
     0
  9
$USERI3
 70
     0
  9
$USERI4
 70
     0
  9
$USERI5
 70
     0
  9
$USERR1
 40
0.0
  9
$USERR2
 40
0.0
  9
$USERR3
 40
0.0
  9
$USERR4
 40
0.0
  9
$USERR5
 40
0.0
  9
$WORLDVIEW
 70
     1
  9
$SHADEDGE
 70
     3
  9
$SHADEDIF
 70
    70
  9
$TILEMODE
 70
     1
  9
$MAXACTVP
 70
    16
  9
$PINSBASE
 10
0.0
 20
0.0
 30
0.0
  9
$PLIMCHECK
 70
     0
  9
$PEXTMIN
 10
1.000000E+20
 20
1.000000E+20
 30
1.000000E+20
  9
$PEXTMAX
 10
-1.000000E+20
 20
-1.000000E+20
 30
-1.000000E+20
  9
$PLIMMIN
 10
0.0
 20
0.0
  9
$PLIMMAX
 10
12.0
 20
9.0
  9
$UNITMODE
 70
     0
  9
$VISRETAIN
 70
     0
  9
$PLINEGEN
 70
     0
  9
$PSLTSCALE
 70
     0
  9
$TREEDEPTH
 70
  3020
  9
$DWGCODEPAGE
  3
iso8859-1
  0
ENDSEC
  0
SECTION
  2
TABLES
  0
TABLE
  2
VPORT
 70
     2
  0
VPORT
  2
*ACTIVE
 70
     0
 10
0.0
 20
0.0
 11
1.0
 21
1.0
 12
293.163362
 22
36.822
 13
0.0
 23
0.0
 14
1.0
 24
1.0
 15
10.0
 25
10.0
 16
0.0
 26
0.0
 36
1.0
 17
0.0
 27
0.0
 37
0.0
 40
15.85
 41
1.611024
 42
50.0
 43
0.0
 44
0.0
 50
0.0
 51
0.0
 71
     0
 72
   100
 73
     1
 74
     0
 75
     0
 76
     0
 77
     0
 78
     0
  0
ENDTAB
  0
TABLE
  2
LTYPE
 70
     1
  0
LTYPE
  2
CONTINUOUS
 70
    64
  3
Solid line
 72
    65
 73
     0
 40
0.0
  0
ENDTAB
  0
TABLE
  2
LAYER
 70
     8
  0
LAYER
  2
0
 70
    64
 62
     7
  6
CONTINUOUS
  0
LAYER
  2
1
 70
    64
 62
     7
  6
CONTINUOUS
  0
LAYER
  2
7
 70
    64
 62
     7
  6
CONTINUOUS
  0
LAYER
  2
8
 70
    64
 62
     7
  6
CONTINUOUS
  0
LAYER
  2
9
 70
    64
 62
     7
  6
CONTINUOUS
  0
LAYER
  2
22
 70
    64
 62
     7
  6
CONTINUOUS
  0
LAYER
  2
25
 70
    64
 62
     7
  6
CONTINUOUS
  0
LAYER
  2
DEFPOINTS
 70
    64
 62
     7
  6
CONTINUOUS
  0
ENDTAB
  0
TABLE
  2
STYLE
 70
     2
  0
STYLE
  2
STANDARD
 70
     0
 40
0.0
 41
1.0
 50
0.0
 71
     0
 42
3.5
  3
txt
  4

  0
STYLE
  2
ROMANC
 70
    64
 40
0.0
 41
1.0
 50
0.0
 71
     0
 42
0.2
  3
romanc
  4

  0
ENDTAB
  0
TABLE
  2
VIEW
 70
     0
  0
ENDTAB
  0
TABLE
  2
UCS
 70
     0
  0
ENDTAB
  0
TABLE
  2
APPID
 70
     1
  0
APPID
  2
ACAD
 70
    64
  0
ENDTAB
  0
TABLE
  2
DIMSTYLE
 70
     0
  0
ENDTAB
  0
ENDSEC
  0
SECTION
  2
BLOCKS
  0
BLOCK
  8
0
  2
*D0
 70
    65
 10
0.0
 20
0.0
 30
0.0
  3
*D
  0
LINE
  8
0
  6
BYBLOCK
 62
     0
 10
287.004
 20
34.5055
 30
0.0
 11
287.004
 21
35.457571
 31
0.0
  0
LINE
  8
0
  6
BYBLOCK
 62
     0
 10
285.854
 20
34.5055
 30
0.0
 11
285.854
 21
35.457571
 31
0.0
  0
LINE
  8
0
  6
BYBLOCK
 62
     0
 10
287.004
 20
35.427571
 30
0.0
 11
286.699357
 21
35.427571
 31
0.0
  0
LINE
  8
0
  6
BYBLOCK
 62
     0
 10
285.854
 20
35.427571
 30
0.0
 11
286.158643
 21
35.427571
 31
0.0
  0
LINE
  8
0
  6
BYBLOCK
 62
     0
 10
286.974
 20
35.397571
 30
0.0
 11
287.034
 21
35.457571
 31
0.0
  0
LINE
  8
0
  6
BYBLOCK
 62
     0
 10
285.824
 20
35.397571
 30
0.0
 11
285.884
 21
35.457571
 31
0.0
  0
TEXT
  8
0
  6
BYBLOCK
 62
     0
 10
286.227214
 20
35.390071
 30
0.0
 40
0.075
  1
1.1500
  7
ROMANC
 72
     1
 11
286.429
 21
35.427571
 31
0.0
 73
     2
  0
POINT
  8
DEFPOINTS
  6
BYBLOCK
 62
     0
 10
287.004
 20
34.443
 30
0.0
  0
POINT
  8
DEFPOINTS
  6
BYBLOCK
 62
     0
 10
285.854
 20
34.443
 30
0.0
  0
POINT
  8
DEFPOINTS
  6
BYBLOCK
 62
     0
 10
285.854
 20
35.427571
 30
0.0
  0
ENDBLK
  8
0
  0
ENDSEC
  0
SECTION
  2
ENTITIES
  0
TEXT
  8
0
  6
CONTINUOUS
 10
286.909
 20
41.324
 30
0.0
 40
0.1
  1
2
  7
ROMANC
  0
TEXT
  8
0
  6
CONTINUOUS
 10
283.926
 20
41.768
 30
0.0
 40
0.3
  1
ESCALA  1:50
  7
ROMANC
  0
POLYLINE
  8
0
  6
CONTINUOUS
 66
     1
 10
0.0
 20
0.0
 30
0.0
 70
     1
  0
VERTEX
  8
0
  6
CONTINUOUS
 10
281.396
 20
44.747
 30
0.0
  0
VERTEX
  8
0
  6
CONTINUOUS
 10
291.896
 20
44.747
 30
0.0
  0
VERTEX
  8
0
  6
CONTINUOUS
 10
291.896
 20
29.897
 30
0.0
  0
VERTEX
  8
0
  6
CONTINUOUS
 10
281.396
 20
29.897
 30
0.0
  0
SEQEND
  8
0
  0
TEXT
  8
0
  6
CONTINUOUS
 10
283.926
 20
42.381
 30
0.0
 40
0.3
  1
TIPUS   T176B
  7
ROMANC
  0
ARC
  8
1
  6
CONTINUOUS
 10
286.429
 20
34.437978
 30
0.0
 40
0.575022
 50
0.500397
 51
179.499603
  0
ARC
  8
1
  6
CONTINUOUS
 10
286.429
 20
33.243
 30
0.0
 40
0.2
 50
180.0
 51
0.0
  0
LINE
  8
1
  6
CONTINUOUS
 10
285.904
 20
33.443
 30
0.0
 11
285.854
 21
34.443
 31
0.0
  0
TEXT
  8
0
  6
CONTINUOUS
 10
283.945
 20
41.099
 30
0.0
 40
0.3
  1
S = 176 dm
  7
ROMANC
  0
TEXT
  8
0
  6
CONTINUOUS
 10
283.922
 20
40.529
 30
0.0
 40
0.3
  1
P = 55 dm
  7
ROMANC
  0
LINE
  8
1
  6
CONTINUOUS
 10
286.229
 20
33.443
 30
0.0
 11
285.904
 21
33.443
 31
0.0
  0
LINE
  8
1
  6
CONTINUOUS
 10
286.954
 20
33.443
 30
0.0
 11
286.629
 21
33.443
 31
0.0
  0
LINE
  8
1
  6
CONTINUOUS
 10
286.229
 20
33.243
 30
0.0
 11
286.229
 21
33.443
 31
0.0
  0
LINE
  8
1
  6
CONTINUOUS
 10
286.629
 20
33.443
 30
0.0
 11
286.629
 21
33.243
 31
0.0
  0
TEXT
  8
1
  6
CONTINUOUS
 10
286.307
 20
32.716
 30
0.0
 40
0.075
  1
0.40
  7
ROMANC
  0
LINE
  8
1
  6
CONTINUOUS
 10
286.079
 20
32.753
 30
0.0
 11
286.229
 21
32.753
 31
0.0
  0
LINE
  8
1
  6
CONTINUOUS
 10
286.779
 20
32.753
 30
0.0
 11
286.629
 21
32.753
 31
0.0
  0
LINE
  8
1
  6
CONTINUOUS
 10
286.266
 20
32.772
 30
0.0
 11
286.192
 21
32.734
 31
0.0
  0
LINE
  8
1
  6
CONTINUOUS
 10
286.592
 20
32.734
 30
0.0
 11
286.666
 21
32.772
 31
0.0
  0
LINE
  8
1
  6
CONTINUOUS
 10
286.229
 20
33.405
 30
0.0
 11
286.229
 21
32.715
 31
0.0
  0
LINE
  8
1
  6
CONTINUOUS
 10
286.629
 20
33.405
 30
0.0
 11
286.629
 21
32.715
 31
0.0
  0
TEXT
  8
1
  6
CONTINUOUS
 10
286.319
 20
32.568
 30
0.0
 40
0.075
  1
1.05
  7
ROMANC
  0
LINE
  8
1
  6
CONTINUOUS
 10
286.281
 20
32.606
 30
0.0
 11
285.904
 21
32.606
 31
0.0
  0
LINE
  8
1
  6
CONTINUOUS
 10
286.576
 20
32.606
 30
0.0
 11
286.954
 21
32.606
 31
0.0
  0
LINE
  8
1
  6
CONTINUOUS
 10
285.866
 20
32.587
 30
0.0
 11
285.942
 21
32.625
 31
0.0
  0
LINE
  8
1
  6
CONTINUOUS
 10
286.992
 20
32.625
 30
0.0
 11
286.916
 21
32.587
 31
0.0
  0
LINE
  8
1
  6
CONTINUOUS
 10
285.904
 20
33.405
 30
0.0
 11
285.904
 21
32.568
 31
0.0
  0
LINE
  8
1
  6
CONTINUOUS
 10
286.954
 20
33.405
 30
0.0
 11
286.954
 21
32.568
 31
0.0
  0
TEXT
  8
1
  6
CONTINUOUS
 10
287.132
 20
33.629
 30
0.0
 40
0.075
  1
0.40
 50
90.0
  7
ROMANC
  0
LINE
  8
1
  6
CONTINUOUS
 10
287.095
 20
32.893
 30
0.0
 11
287.095
 21
33.043
 31
0.0
  0
LINE
  8
1
  6
CONTINUOUS
 10
287.095
 20
33.591
 30
0.0
 11
287.095
 21
33.443
 31
0.0
  0
LINE
  8
1
  6
CONTINUOUS
 10
287.076
 20
33.08
 30
0.0
 11
287.114
 21
33.006
 31
0.0
  0
LINE
  8
1
  6
CONTINUOUS
 10
287.114
 20
33.406
 30
0.0
 11
287.076
 21
33.48
 31
0.0
  0
LINE
  8
1
  6
CONTINUOUS
 10
286.467
 20
33.043
 30
0.0
 11
287.133
 21
33.043
 31
0.0
  0
LINE
  8
1
  6
CONTINUOUS
 10
286.667
 20
33.443
 30
0.0
 11
287.133
 21
33.443
 31
0.0
  0
LINE
  8
1
  6
CONTINUOUS
 10
287.004
 20
34.443
 30
0.0
 11
286.954
 21
33.443
 31
0.0
  0
TEXT
  8
1
  6
CONTINUOUS
 10
287.28
 20
33.833
 30
0.0
 40
0.075
  1
1.00
 50
90.0
  7
ROMANC
  0
LINE
  8
1
  6
CONTINUOUS
 10
287.243
 20
33.795
 30
0.0
 11
287.243
 21
33.443
 31
0.0
  0
LINE
  8
1
  6
CONTINUOUS
 10
287.243
 20
34.09
 30
0.0
 11
287.243
 21
34.443
 31
0.0
  0
LINE
  8
1
  6
CONTINUOUS
 10
287.262
 20
33.406
 30
0.0
 11
287.224
 21
33.48
 31
0.0
  0
LINE
  8
1
  6
CONTINUOUS
 10
287.224
 20
34.48
 30
0.0
 11
287.262
 21
34.406
 31
0.0
  0
LINE
  8
1
  6
CONTINUOUS
 10
286.992
 20
33.443
 30
0.0
 11
287.281
 21
33.443
 31
0.0
  0
LINE
  8
1
  6
CONTINUOUS
 10
287.042
 20
34.443
 30
0.0
 11
287.281
 21
34.443
 31
0.0
  0
TEXT
  8
1
  6
CONTINUOUS
 10
287.28
 20
34.609
 30
0.0
 40
0.075
  1
0.57
 50
90.0
  7
ROMANC
  0
LINE
  8
1
  6
CONTINUOUS
 10
287.243
 20
34.293
 30
0.0
 11
287.243
 21
34.443
 31
0.0
  0
LINE
  8
1
  6
CONTINUOUS
 10
287.243
 20
35.163
 30
0.0
 11
287.243
 21
35.013
 31
0.0
  0
LINE
  8
1
  6
CONTINUOUS
 10
287.224
 20
34.48
 30
0.0
 11
287.262
 21
34.406
 31
0.0
  0
LINE
  8
1
  6
CONTINUOUS
 10
287.262
 20
34.976
 30
0.0
 11
287.224
 21
35.05
 31
0.0
  0
LINE
  8
1
  6
CONTINUOUS
 10
286.467
 20
35.013
 30
0.0
 11
287.281
 21
35.013
 31
0.0
  0
TEXT
  8
1
  6
CONTINUOUS
 10
287.44
 20
33.918
 30
0.0
 40
0.075
  1
1.97
 50
90.0
  7
ROMANC
  0
LINE
  8
1
  6
CONTINUOUS
 10
287.402
 20
33.88
 30
0.0
 11
287.402
 21
33.043
 31
0.0
  0
LINE
  8
1
  6
CONTINUOUS
 10
287.402
 20
34.175
 30
0.0
 11
287.402
 21
35.013
 31
0.0
  0
LINE
  8
1
  6
CONTINUOUS
 10
287.421
 20
33.006
 30
0.0
 11
287.383
 21
33.08
 31
0.0
  0
LINE
  8
1
  6
CONTINUOUS
 10
287.383
 20
35.05
 30
0.0
 11
287.421
 21
34.976
 31
0.0
  0
LINE
  8
1
  6
CONTINUOUS
 10
286.467
 20
33.043
 30
0.0
 11
287.44
 21
33.043
 31
0.0
  0
LINE
  8
1
  6
CONTINUOUS
 10
286.467
 20
35.013
 30
0.0
 11
287.44
 21
35.013
 31
0.0
  0
TEXT
  8
1
  6
CONTINUOUS
 10
285.406
 20
32.864
 30
0.0
 40
0.075
  1
0.325
  7
ROMANC
  0
LINE
  8
1
  6
CONTINUOUS
 10
285.831
 20
32.901
 30
0.0
 11
285.904
 21
32.901
 31
0.0
  0
LINE
  8
1
  6
CONTINUOUS
 10
286.379
 20
32.901
 30
0.0
 11
286.229
 21
32.901
 31
0.0
  0
LINE
  8
1
  6
CONTINUOUS
 10
285.942
 20
32.92
 30
0.0
 11
285.866
 21
32.882
 31
0.0
  0
LINE
  8
1
  6
CONTINUOUS
 10
286.192
 20
32.882
 30
0.0
 11
286.266
 21
32.92
 31
0.0
  0
LINE
  8
1
  6
CONTINUOUS
 10
285.904
 20
33.405
 30
0.0
 11
285.904
 21
32.863
 31
0.0
  0
LINE
  8
1
  6
CONTINUOUS
 10
286.229
 20
33.405
 30
0.0
 11
286.229
 21
32.863
 31
0.0
  0
TEXT
  8
1
  6
CONTINUOUS
 10
287.13
 20
32.864
 30
0.0
 40
0.075
  1
0.325
  7
ROMANC
  0
LINE
  8
1
  6
CONTINUOUS
 10
286.479
 20
32.901
 30
0.0
 11
286.629
 21
32.901
 31
0.0
  0
LINE
  8
1
  6
CONTINUOUS
 10
287.092
 20
32.901
 30
0.0
 11
286.954
 21
32.901
 31
0.0
  0
LINE
  8
1
  6
CONTINUOUS
 10
286.666
 20
32.92
 30
0.0
 11
286.592
 21
32.882
 31
0.0
  0
LINE
  8
1
  6
CONTINUOUS
 10
286.916
 20
32.882
 30
0.0
 11
286.992
 21
32.92
 31
0.0
  0
LINE
  8
1
  6
CONTINUOUS
 10
286.629
 20
33.405
 30
0.0
 11
286.629
 21
32.863
 31
0.0
  0
LINE
  8
1
  6
CONTINUOUS
 10
286.954
 20
33.405
 30
0.0
 11
286.954
 21
32.863
 31
0.0
  0
LINE
  8
1
  6
CONTINUOUS
 10
285.894
 20
33.433
 30
0.0
 11
285.844
 21
34.442
 31
0.0
  0
LINE
  8
1
  6
CONTINUOUS
 10
285.885
 20
33.423
 30
0.0
 11
285.834
 21
34.442
 31
0.0
  0
LINE
  8
1
  6
CONTINUOUS
 10
286.219
 20
33.433
 30
0.0
 11
285.894
 21
33.433
 31
0.0
  0
LINE
  8
1
  6
CONTINUOUS
 10
286.209
 20
33.423
 30
0.0
 11
285.885
 21
33.423
 31
0.0
  0
LINE
  8
1
  6
CONTINUOUS
 10
286.219
 20
33.243
 30
0.0
 11
286.219
 21
33.433
 31
0.0
  0
LINE
  8
1
  6
CONTINUOUS
 10
286.209
 20
33.243
 30
0.0
 11
286.209
 21
33.423
 31
0.0
  0
ARC
  8
1
  6
CONTINUOUS
 10
286.429
 20
33.243
 30
0.0
 40
0.21
 50
180.0
 51
0.0
  0
ARC
  8
1
  6
CONTINUOUS
 10
286.429
 20
33.243
 30
0.0
 40
0.22
 50
180.0
 51
0.0
  0
LINE
  8
1
  6
CONTINUOUS
 10
286.639
 20
33.433
 30
0.0
 11
286.639
 21
33.243
 31
0.0
  0
LINE
  8
1
  6
CONTINUOUS
 10
286.649
 20
33.423
 30
0.0
 11
286.649
 21
33.243
 31
0.0
  0
LINE
  8
1
  6
CONTINUOUS
 10
286.963
 20
33.433
 30
0.0
 11
286.639
 21
33.433
 31
0.0
  0
LINE
  8
1
  6
CONTINUOUS
 10
286.972
 20
33.423
 30
0.0
 11
286.649
 21
33.423
 31
0.0
  0
LINE
  8
1
  6
CONTINUOUS
 10
287.013
 20
34.442
 30
0.0
 11
286.963
 21
33.433
 31
0.0
  0
LINE
  8
1
  6
CONTINUOUS
 10
287.023
 20
34.442
 30
0.0
 11
286.972
 21
33.423
 31
0.0
  0
ARC
  8
1
  6
CONTINUOUS
 10
286.429
 20
34.437978
 30
0.0
 40
0.585022
 50
0.500397
 51
179.499603
  0
ARC
  8
1
  6
CONTINUOUS
 10
286.429
 20
34.437978
 30
0.0
 40
0.595022
 50
0.500397
 51
179.499603
  0
LINE
  8
0
  6
BYBLOCK
 62
     0
 10
287.004
 20
34.5055
 30
0.0
 11
287.004
 21
35.457571
 31
0.0
  0
LINE
  8
0
  6
BYBLOCK
 62
     0
 10
285.854
 20
34.5055
 30
0.0
 11
285.854
 21
35.457571
 31
0.0
  0
LINE
  8
0
  6
BYBLOCK
 62
     0
 10
287.004
 20
35.427571
 30
0.0
 11
286.699357
 21
35.427571
 31
0.0
  0
LINE
  8
0
  6
BYBLOCK
 62
     0
 10
285.854
 20
35.427571
 30
0.0
 11
286.158643
 21
35.427571
 31
0.0
  0
LINE
  8
0
  6
BYBLOCK
 62
     0
 10
286.974
 20
35.397571
 30
0.0
 11
287.034
 21
35.457571
 31
0.0
  0
LINE
  8
0
  6
BYBLOCK
 62
     0
 10
285.824
 20
35.397571
 30
0.0
 11
285.884
 21
35.457571
 31
0.0
  0
TEXT
  8
0
  6
BYBLOCK
 62
     0
 10
286.298643
 20
35.390071
 30
0.0
 40
0.075
  1
1.15
  7
ROMANC
 72
     4
 11
286.429
 21
35.427571
 31
0.0
  0
POINT
  8
DEFPOINTS
  6
BYBLOCK
 62
     0
 10
287.004
 20
34.443
 30
0.0
  0
POINT
  8
DEFPOINTS
  6
BYBLOCK
 62
     0
 10
285.854
 20
34.443
 30
0.0
  0
POINT
  8
DEFPOINTS
  6
BYBLOCK
 62
     0
 10
285.854
 20
35.427571
 30
0.0
  0
ENDSEC
  0
EOF
