  0
SECTION
  2
HEADER
  9
$ACADVER
  1
AC1009
  9
$INSBASE
 10
0.0
 20
0.0
 30
0.0
  9
$EXTMIN
 10
281.396000
 20
29.897000
 30
-2147483.648000
  9
$EXTMAX
 10
291.896000
 20
44.747000
 30
0.000000
  9
$LIMMIN
 10
280.396000
 20
28.897000
  9
$LIMMAX
 10
292.896000
 20
43.747000
  9
$ORTHOMODE
 70
     0
  9
$REGENMODE
 70
     1
  9
$FILLMODE
 70
     1
  9
$QTEXTMODE
 70
     0
  9
$MIRRTEXT
 70
     1
  9
$DRAGMODE
 70
     2
  9
$LTSCALE
 40
1.0
  9
$OSMODE
 70
     0
  9
$ATTMODE
 70
     1
  9
$TEXTSIZE
 40
0.2
  9
$TRACEWID
 40
0.05
  9
$TEXTSTYLE
  7
STANDARD
  9
$CLAYER
  8
0
  9
$CELTYPE
  6
BYLAYER
  9
$CECOLOR
 62
   256
  9
$DIMSCALE
 40
1.0
  9
$DIMASZ
 40
0.18
  9
$DIMEXO
 40
0.0625
  9
$DIMDLI
 40
0.38
  9
$DIMRND
 40
0.0
  9
$DIMDLE
 40
0.0
  9
$DIMEXE
 40
0.18
  9
$DIMTP
 40
0.0
  9
$DIMTM
 40
0.0
  9
$DIMTXT
 40
0.18
  9
$DIMCEN
 40
0.09
  9
$DIMTSZ
 40
0.0
  9
$DIMTOL
 70
     0
  9
$DIMLIM
 70
     0
  9
$DIMTIH
 70
     1
  9
$DIMTOH
 70
     1
  9
$DIMSE1
 70
     0
  9
$DIMSE2
 70
     0
  9
$DIMTAD
 70
     0
  9
$DIMZIN
 70
     0
  9
$DIMBLK
  1

  9
$DIMASO
 70
     1
  9
$DIMSHO
 70
     1
  9
$DIMPOST
  1

  9
$DIMAPOST
  1

  9
$DIMALT
 70
     0
  9
$DIMALTD
 70
     2
  9
$DIMALTF
 40
25.4
  9
$DIMLFAC
 40
1.0
  9
$DIMTOFL
 70
     0
  9
$DIMTVP
 40
0.0
  9
$DIMTIX
 70
     0
  9
$DIMSOXD
 70
     0
  9
$DIMSAH
 70
     0
  9
$DIMBLK1
  1

  9
$DIMBLK2
  1

  9
$DIMSTYLE
  2
*UNNAMED
  9
$DIMCLRD
 70
     0
  9
$DIMCLRE
 70
     0
  9
$DIMCLRT
 70
     0
  9
$DIMTFAC
 40
1.0
  9
$DIMGAP
 40
0.09
  9
$LUNITS
 70
     2
  9
$LUPREC
 70
     4
  9
$AXISMODE
 70
     0
  9
$AXISUNIT
 10
0.0
 20
0.0
  9
$SKETCHINC
 40
0.1
  9
$FILLETRAD
 40
0.0
  9
$AUNITS
 70
     0
  9
$AUPREC
 70
     0
  9
$MENU
  1
acad
  9
$ELEVATION
 40
0.0
  9
$PELEVATION
 40
0.0
  9
$THICKNESS
 40
0.0
  9
$LIMCHECK
 70
     0
  9
$BLIPMODE
 70
     1
  9
$CHAMFERA
 40
0.0
  9
$CHAMFERB
 40
0.0
  9
$SKPOLY
 70
     0
  9
$TDCREATE
 40
2448315.373408102
  9
$TDUPDATE
 40
2448315.373408102
  9
$TDINDWG
 40
0.0000000000
  9
$TDUSRTIMER
 40
0.0000000000
  9
$USRTIMER
 70
     1
  9
$ANGBASE
 50
0.0
  9
$ANGDIR
 70
     0
  9
$PDMODE
 70
     0
  9
$PDSIZE
 40
0.0
  9
$PLINEWID
 40
0.0
  9
$COORDS
 70
     0
  9
$SPLFRAME
 70
     0
  9
$SPLINETYPE
 70
     6
  9
$SPLINESEGS
 70
     8
  9
$ATTDIA
 70
     0
  9
$ATTREQ
 70
     1
  9
$HANDLING
 70
     0
  9
$HANDSEED
  5
0
  9
$SURFTAB1
 70
     6
  9
$SURFTAB2
 70
     6
  9
$SURFTYPE
 70
     6
  9
$SURFU
 70
     6
  9
$SURFV
 70
     6
  9
$UCSNAME
  2

  9
$UCSORG
 10
0.0
 20
0.0
 30
0.0
  9
$UCSXDIR
 10
1.0
 20
0.0
 30
0.0
  9
$UCSYDIR
 10
0.0
 20
1.0
 30
0.0
  9
$PUCSNAME
  2

  9
$PUCSORG
 10
0.0
 20
0.0
 30
0.0
  9
$PUCSXDIR
 10
1.0
 20
0.0
 30
0.0
  9
$PUCSYDIR
 10
0.0
 20
1.0
 30
0.0
  9
$USERI1
 70
     0
  9
$USERI2
 70
     0
  9
$USERI3
 70
     0
  9
$USERI4
 70
     0
  9
$USERI5
 70
     0
  9
$USERR1
 40
0.0
  9
$USERR2
 40
0.0
  9
$USERR3
 40
0.0
  9
$USERR4
 40
0.0
  9
$USERR5
 40
0.0
  9
$WORLDVIEW
 70
     1
  9
$SHADEDGE
 70
     3
  9
$SHADEDIF
 70
    70
  9
$TILEMODE
 70
     1
  9
$MAXACTVP
 70
    16
  9
$PINSBASE
 10
0.0
 20
0.0
 30
0.0
  9
$PLIMCHECK
 70
     0
  9
$PEXTMIN
 10
1.000000E+20
 20
1.000000E+20
 30
1.000000E+20
  9
$PEXTMAX
 10
-1.000000E+20
 20
-1.000000E+20
 30
-1.000000E+20
  9
$PLIMMIN
 10
0.0
 20
0.0
  9
$PLIMMAX
 10
12.0
 20
9.0
  9
$UNITMODE
 70
     0
  9
$VISRETAIN
 70
     0
  0
ENDSEC
  0
SECTION
  2
TABLES
  0
TABLE
  2
LTYPE
 70
    1
  0
LTYPE
  2
CONTINUOUS
 70
    64
3
Solid line
 72
    65
 73
0
 40
0.000000
  0
ENDTAB
  0
TABLE
  2
LAYER
 70
    8
  0
LAYER
  2
0
 70
    64
 62
7
  6
CONTINUOUS
  0
LAYER
  2
1
 70
    64
 62
7
  6
CONTINUOUS
  0
LAYER
  2
7
 70
    64
 62
7
  6
CONTINUOUS
  0
LAYER
  2
8
 70
    64
 62
7
  6
CONTINUOUS
  0
LAYER
  2
9
 70
    64
 62
7
  6
CONTINUOUS
  0
LAYER
  2
22
 70
    64
 62
7
  6
CONTINUOUS
  0
LAYER
  2
25
 70
    64
 62
7
  6
CONTINUOUS
  0
LAYER
  2
0
 70
    64
 62
7
  6
CONTINUOUS
  0
ENDTAB
  0
TABLE
  2
STYLE
 70
    1
  0
STYLE
  2
ROMANC
70
     0
 40
0.0
 41
1.0
 50
0.0
 71
     0
 42
0.2
  3
ROMANC
  4

  0
ENDTAB
  0
ENDSEC
  0
SECTION
  2
BLOCKS
  0
ENDSEC
  0
SECTION
  2
ENTITIES
  0
TEXT
  8
0
  6
CONTINUOUS
 40
0.100000
 10
286.909000
 20
41.324000
  1
2
  7
ROMANC
  0
TEXT
  8
0
  6
CONTINUOUS
 40
0.300000
 10
283.926000
 20
41.768000
  1
ESCALA  1:50
  7
ROMANC
  0
POLYLINE
  8
0
  6
CONTINUOUS
 66
     1
 70
     1
  0
VERTEX
  8
0
  6
CONTINUOUS
 10
281.396000
 20
44.747000
  0
VERTEX
  8
0
  6
CONTINUOUS
 10
291.896000
 20
44.747000
  0
VERTEX
  8
0
  6
CONTINUOUS
 10
291.896000
 20
29.897000
  0
VERTEX
  8
0
  6
CONTINUOUS
 10
281.396000
 20
29.897000
  0
SEQEND
  8
0
  0
TEXT
  8
0
  6
CONTINUOUS
 40
0.300000
 10
283.926000
 20
42.381000
  1
TIPUS   T172
  7
ROMANC
  0
TEXT
  8
1
  6
CONTINUOUS
 40
0.075000
 10
287.688000
 20
33.957000
  1
1.56
 50
90.000000
  7
ROMANC
  0
LINE
  8
1
  6
CONTINUOUS
 10
287.650000
 20
33.919000
 11
287.650000
 21
33.287000
  0
LINE
  8
1
  6
CONTINUOUS
 10
287.650000
 20
34.214000
 11
287.650000
 21
34.847000
  0
LINE
  8
1
  6
CONTINUOUS
 10
287.669000
 20
33.250000
 11
287.631000
 21
33.324000
  0
LINE
  8
1
  6
CONTINUOUS
 10
287.631000
 20
34.884000
 11
287.669000
 21
34.810000
  0
LINE
  8
1
  6
CONTINUOUS
 10
287.150000
 20
33.287000
 11
287.688000
 21
33.287000
  0
LINE
  8
1
  6
CONTINUOUS
 10
286.600000
 20
34.847000
 11
287.688000
 21
34.847000
  0
TEXT
  8
0
  6
CONTINUOUS
 40
0.300000
 10
283.945000
 20
41.099000
  1
S = 163 dm
  7
ROMANC
  0
TEXT
  8
0
  6
CONTINUOUS
 40
0.300000
 10
283.922000
 20
40.529000
  1
P = 50 dm
  7
ROMANC
  0
ARC
  8
1
  6
CONTINUOUS
 10
286.562000
 20
34.297000
 40
0.550000
 50
360.000000
 51
540.000000
  0
LINE
  8
1
  6
CONTINUOUS
 10
286.012000
 20
34.297000
 11
286.012000
 21
33.287000
  0
LINE
  8
1
  6
CONTINUOUS
 10
286.012000
 20
33.287000
 11
286.342000
 21
33.287000
  0
ARC
  8
1
  6
CONTINUOUS
 10
286.562000
 20
33.373333
 40
0.236333
 50
201.426247
 51
338.573756
  0
LINE
  8
1
  6
CONTINUOUS
 10
286.782000
 20
33.287000
 11
287.112000
 21
33.287000
  0
LINE
  8
1
  6
CONTINUOUS
 10
287.112000
 20
33.287000
 11
287.112000
 21
34.297000
  0
TEXT
  8
1
  6
CONTINUOUS
 40
0.075000
 10
286.064000
 20
32.978000
  1
0.33
  7
ROMANC
  0
LINE
  8
1
  6
CONTINUOUS
 10
285.862000
 20
33.016000
 11
286.012000
 21
33.016000
  0
LINE
  8
1
  6
CONTINUOUS
 10
286.492000
 20
33.016000
 11
286.342000
 21
33.016000
  0
LINE
  8
1
  6
CONTINUOUS
 10
286.050000
 20
33.035000
 11
285.974000
 21
32.997000
  0
LINE
  8
1
  6
CONTINUOUS
 10
286.304000
 20
32.997000
 11
286.380000
 21
33.035000
  0
LINE
  8
1
  6
CONTINUOUS
 10
286.012000
 20
33.249000
 11
286.012000
 21
32.978000
  0
LINE
  8
1
  6
CONTINUOUS
 10
286.342000
 20
33.249000
 11
286.342000
 21
32.978000
  0
TEXT
  8
1
  6
CONTINUOUS
 40
0.075000
 10
286.845000
 20
32.978000
  1
0.33
  7
ROMANC
  0
LINE
  8
1
  6
CONTINUOUS
 10
286.632000
 20
33.016000
 11
286.782000
 21
33.016000
  0
LINE
  8
1
  6
CONTINUOUS
 10
287.262000
 20
33.016000
 11
287.112000
 21
33.016000
  0
LINE
  8
1
  6
CONTINUOUS
 10
286.820000
 20
33.035000
 11
286.744000
 21
32.997000
  0
LINE
  8
1
  6
CONTINUOUS
 10
287.074000
 20
32.997000
 11
287.150000
 21
33.035000
  0
LINE
  8
1
  6
CONTINUOUS
 10
286.782000
 20
33.249000
 11
286.782000
 21
32.978000
  0
LINE
  8
1
  6
CONTINUOUS
 10
287.112000
 20
33.249000
 11
287.112000
 21
32.978000
  0
TEXT
  8
1
  6
CONTINUOUS
 40
0.075000
 10
286.436000
 20
32.834000
  1
0.44
  7
ROMANC
  0
LINE
  8
1
  6
CONTINUOUS
 10
286.192000
 20
32.872000
 11
286.342000
 21
32.872000
  0
LINE
  8
1
  6
CONTINUOUS
 10
286.932000
 20
32.872000
 11
286.782000
 21
32.872000
  0
LINE
  8
1
  6
CONTINUOUS
 10
286.380000
 20
32.891000
 11
286.304000
 21
32.853000
  0
LINE
  8
1
  6
CONTINUOUS
 10
286.744000
 20
32.853000
 11
286.820000
 21
32.891000
  0
LINE
  8
1
  6
CONTINUOUS
 10
286.342000
 20
33.249000
 11
286.342000
 21
32.834000
  0
LINE
  8
1
  6
CONTINUOUS
 10
286.782000
 20
33.249000
 11
286.782000
 21
32.834000
  0
TEXT
  8
1
  6
CONTINUOUS
 40
0.075000
 10
286.461000
 20
32.702000
  1
1.10
  7
ROMANC
  0
LINE
  8
1
  6
CONTINUOUS
 10
286.423000
 20
32.739000
 11
286.012000
 21
32.739000
  0
LINE
  8
1
  6
CONTINUOUS
 10
286.700000
 20
32.739000
 11
287.112000
 21
32.739000
  0
LINE
  8
1
  6
CONTINUOUS
 10
285.974000
 20
32.720000
 11
286.050000
 21
32.758000
  0
LINE
  8
1
  6
CONTINUOUS
 10
287.150000
 20
32.758000
 11
287.074000
 21
32.720000
  0
LINE
  8
1
  6
CONTINUOUS
 10
286.012000
 20
33.249000
 11
286.012000
 21
32.701000
  0
LINE
  8
1
  6
CONTINUOUS
 10
287.112000
 20
33.249000
 11
287.112000
 21
32.701000
  0
TEXT
  8
1
  6
CONTINUOUS
 40
0.075000
 10
287.306000
 20
33.681000
  1
0.15
 50
90.000000
  7
ROMANC
  0
LINE
  8
1
  6
CONTINUOUS
 10
287.268000
 20
32.987000
 11
287.268000
 21
33.137000
  0
LINE
  8
1
  6
CONTINUOUS
 10
287.268000
 20
33.643000
 11
287.268000
 21
33.287000
  0
LINE
  8
1
  6
CONTINUOUS
 10
287.249000
 20
33.174000
 11
287.287000
 21
33.100000
  0
LINE
  8
1
  6
CONTINUOUS
 10
287.287000
 20
33.250000
 11
287.249000
 21
33.324000
  0
LINE
  8
1
  6
CONTINUOUS
 10
286.600000
 20
33.137000
 11
287.306000
 21
33.137000
  0
LINE
  8
1
  6
CONTINUOUS
 10
286.820000
 20
33.287000
 11
287.306000
 21
33.287000
  0
LINE
  8
1
  6
CONTINUOUS
 10
286.002000
 20
34.297000
 11
286.002000
 21
33.277000
  0
LINE
  8
1
  6
CONTINUOUS
 10
285.992000
 20
34.297000
 11
285.992000
 21
33.267000
  0
LINE
  8
1
  6
CONTINUOUS
 10
286.002000
 20
33.277000
 11
286.335000
 21
33.277000
  0
LINE
  8
1
  6
CONTINUOUS
 10
285.992000
 20
33.267000
 11
286.329000
 21
33.267000
  0
ARC
  8
1
  6
CONTINUOUS
 10
286.562000
 20
33.373333
 40
0.246333
 50
203.021033
 51
336.978967
  0
ARC
  8
1
  6
CONTINUOUS
 10
286.562000
 20
33.373333
 40
0.256333
 50
204.508261
 51
335.491739
  0
LINE
  8
1
  6
CONTINUOUS
 10
286.789000
 20
33.277000
 11
287.122000
 21
33.277000
  0
LINE
  8
1
  6
CONTINUOUS
 10
286.795000
 20
33.267000
 11
287.132000
 21
33.267000
  0
LINE
  8
1
  6
CONTINUOUS
 10
287.122000
 20
33.277000
 11
287.122000
 21
34.297000
  0
LINE
  8
1
  6
CONTINUOUS
 10
287.132000
 20
33.267000
 11
287.132000
 21
34.297000
  0
ARC
  8
1
  6
CONTINUOUS
 10
286.562000
 20
34.297000
 40
0.560000
 50
360.000000
 51
540.000000
  0
ARC
  8
1
  6
CONTINUOUS
 10
286.562000
 20
34.297000
 40
0.570000
 50
360.000000
 51
540.000000
  0
TEXT
  8
1
  6
CONTINUOUS
 40
0.075000
 10
287.440000
 20
33.691000
  1
1.01
 50
90.000000
  7
ROMANC
  0
LINE
  8
1
  6
CONTINUOUS
 10
287.402000
 20
33.653000
 11
287.402000
 21
33.287000
  0
LINE
  8
1
  6
CONTINUOUS
 10
287.402000
 20
33.930000
 11
287.402000
 21
34.297000
  0
LINE
  8
1
  6
CONTINUOUS
 10
287.421000
 20
33.250000
 11
287.383000
 21
33.324000
  0
LINE
  8
1
  6
CONTINUOUS
 10
287.383000
 20
34.334000
 11
287.421000
 21
34.260000
  0
LINE
  8
1
  6
CONTINUOUS
 10
287.150000
 20
33.287000
 11
287.440000
 21
33.287000
  0
LINE
  8
1
  6
CONTINUOUS
 10
287.150000
 20
34.297000
 11
287.440000
 21
34.297000
  0
ENDSEC
  0
EOF
