  0
SECTION
  2
HEADER
  9
$ACADVER
  1
AC1012
  9
$DWGCODEPAGE
  3
ANSI_1252
  9
$INSBASE
 10
0.0
 20
0.0
 30
0.0
  9
$EXTMIN
 10
281.3950692441341
 20
29.89657355491301
 30
-98.29650011472404
  9
$EXTMAX
 10
291.8969308140735
 20
44.74748374051749
 30
65.54100007656962
  9
$LIMMIN
 10
280.396
 20
28.89699999999999
  9
$LIMMAX
 10
292.896
 20
43.74699999999999
  9
$ORTHOMODE
 70
     0
  9
$REGENMODE
 70
     1
  9
$FILLMODE
 70
     1
  9
$QTEXTMODE
 70
     0
  9
$MIRRTEXT
 70
     1
  9
$DRAGMODE
 70
     2
  9
$LTSCALE
 40
1.0
  9
$OSMODE
 70
    43
  9
$ATTMODE
 70
     1
  9
$TEXTSIZE
 40
0.2
  9
$TRACEWID
 40
0.05
  9
$TEXTSTYLE
  7
STANDARD
  9
$CLAYER
  8
0
  9
$CELTYPE
  6
BYLAYER
  9
$CECOLOR
 62
   256
  9
$CELTSCALE
 40
1.0
  9
$DELOBJ
 70
     1
  9
$DISPSILH
 70
     0
  9
$DIMSCALE
 40
1.0
  9
$DIMASZ
 40
0.18
  9
$DIMEXO
 40
0.0625
  9
$DIMDLI
 40
0.38
  9
$DIMRND
 40
0.0
  9
$DIMDLE
 40
0.0
  9
$DIMEXE
 40
0.18
  9
$DIMTP
 40
0.0
  9
$DIMTM
 40
0.0
  9
$DIMTXT
 40
0.18
  9
$DIMCEN
 40
0.09
  9
$DIMTSZ
 40
0.0
  9
$DIMTOL
 70
     0
  9
$DIMLIM
 70
     0
  9
$DIMTIH
 70
     1
  9
$DIMTOH
 70
     1
  9
$DIMSE1
 70
     0
  9
$DIMSE2
 70
     0
  9
$DIMTAD
 70
     0
  9
$DIMZIN
 70
     0
  9
$DIMBLK
  1

  9
$DIMASO
 70
     1
  9
$DIMSHO
 70
     1
  9
$DIMPOST
  1

  9
$DIMAPOST
  1

  9
$DIMALT
 70
     0
  9
$DIMALTD
 70
     2
  9
$DIMALTF
 40
25.4
  9
$DIMLFAC
 40
1.0
  9
$DIMTOFL
 70
     0
  9
$DIMTVP
 40
0.0
  9
$DIMTIX
 70
     0
  9
$DIMSOXD
 70
     0
  9
$DIMSAH
 70
     0
  9
$DIMBLK1
  1

  9
$DIMBLK2
  1

  9
$DIMSTYLE
  2
STANDARD
  9
$DIMCLRD
 70
     0
  9
$DIMCLRE
 70
     0
  9
$DIMCLRT
 70
     0
  9
$DIMTFAC
 40
1.0
  9
$DIMGAP
 40
0.09
  9
$DIMJUST
 70
     0
  9
$DIMSD1
 70
     0
  9
$DIMSD2
 70
     0
  9
$DIMTOLJ
 70
     1
  9
$DIMTZIN
 70
     0
  9
$DIMALTZ
 70
     0
  9
$DIMALTTZ
 70
     0
  9
$DIMFIT
 70
     3
  9
$DIMUPT
 70
     0
  9
$DIMUNIT
 70
     2
  9
$DIMDEC
 70
     4
  9
$DIMTDEC
 70
     4
  9
$DIMALTU
 70
     2
  9
$DIMALTTD
 70
     2
  9
$DIMTXSTY
  7
STANDARD
  9
$DIMAUNIT
 70
     0
  9
$LUNITS
 70
     2
  9
$LUPREC
 70
     4
  9
$SKETCHINC
 40
0.1
  9
$FILLETRAD
 40
0.0
  9
$AUNITS
 70
     0
  9
$AUPREC
 70
     0
  9
$MENU
  1
acad
  9
$ELEVATION
 40
0.0
  9
$PELEVATION
 40
0.0
  9
$THICKNESS
 40
0.0
  9
$LIMCHECK
 70
     0
  9
$BLIPMODE
 70
     0
  9
$CHAMFERA
 40
0.0
  9
$CHAMFERB
 40
0.0
  9
$CHAMFERC
 40
0.0
  9
$CHAMFERD
 40
0.0
  9
$SKPOLY
 70
     0
  9
$TDCREATE
 40
2448315.373408102
  9
$TDUPDATE
 40
2451843.354854132
  9
$TDINDWG
 40
0.0007567593
  9
$TDUSRTIMER
 40
0.0007311458
  9
$USRTIMER
 70
     1
  9
$ANGBASE
 50
0.0
  9
$ANGDIR
 70
     0
  9
$PDMODE
 70
     0
  9
$PDSIZE
 40
0.0
  9
$PLINEWID
 40
0.0
  9
$COORDS
 70
     0
  9
$SPLFRAME
 70
     0
  9
$SPLINETYPE
 70
     6
  9
$SPLINESEGS
 70
     8
  9
$ATTDIA
 70
     0
  9
$ATTREQ
 70
     1
  9
$HANDLING
 70
 10241
  9
$HANDSEED
  5
5D
  9
$SURFTAB1
 70
     6
  9
$SURFTAB2
 70
     6
  9
$SURFTYPE
 70
     6
  9
$SURFU
 70
     6
  9
$SURFV
 70
     6
  9
$UCSNAME
  2

  9
$UCSORG
 10
0.0
 20
0.0
 30
0.0
  9
$UCSXDIR
 10
1.0
 20
0.0
 30
0.0
  9
$UCSYDIR
 10
0.0
 20
1.0
 30
0.0
  9
$PUCSNAME
  2

  9
$PUCSORG
 10
0.0
 20
0.0
 30
0.0
  9
$PUCSXDIR
 10
1.0
 20
0.0
 30
0.0
  9
$PUCSYDIR
 10
0.0
 20
1.0
 30
0.0
  9
$USERI1
 70
     0
  9
$USERI2
 70
     0
  9
$USERI3
 70
     0
  9
$USERI4
 70
     0
  9
$USERI5
 70
     0
  9
$USERR1
 40
0.0
  9
$USERR2
 40
0.0
  9
$USERR3
 40
0.0
  9
$USERR4
 40
0.0
  9
$USERR5
 40
0.0
  9
$WORLDVIEW
 70
     1
  9
$SHADEDGE
 70
     3
  9
$SHADEDIF
 70
    70
  9
$TILEMODE
 70
     1
  9
$MAXACTVP
 70
    16
  9
$PINSBASE
 10
0.0
 20
0.0
 30
0.0
  9
$PLIMCHECK
 70
     0
  9
$PEXTMIN
 10
1.000000000000000E+20
 20
1.000000000000000E+20
 30
1.000000000000000E+20
  9
$PEXTMAX
 10
-1.000000000000000E+20
 20
-1.000000000000000E+20
 30
-1.000000000000000E+20
  9
$PLIMMIN
 10
0.0
 20
0.0
  9
$PLIMMAX
 10
12.0
 20
9.0
  9
$UNITMODE
 70
     0
  9
$VISRETAIN
 70
     0
  9
$PLINEGEN
 70
     0
  9
$PSLTSCALE
 70
     1
  9
$TREEDEPTH
 70
  3020
  9
$PICKSTYLE
 70
     1
  9
$CMLSTYLE
  2
STANDARD
  9
$CMLJUST
 70
     0
  9
$CMLSCALE
 40
1.0
  9
$SAVEIMAGES
 70
     1
  0
ENDSEC
  0
SECTION
  2
CLASSES
  0
CLASS
  1
ACDBDICTIONARYWDFLT
  2
AcDbDictionaryWithDefault
  3
AutoCAD 2000
 90
    32768
280
     0
281
     0
  0
CLASS
  1
ACDBPLACEHOLDER
  2
AcDbPlaceHolder
  3
AutoCAD 2000
 90
    32768
280
     0
281
     0
  0
CLASS
  1
LAYOUT
  2
AcDbLayout
  3
AutoCAD 2000
 90
    32768
280
     0
281
     0
  0
CLASS
  1
LONG_TRANSACTION
  2
AcDbLongTransaction
  3
AutoCAD 2000
 90
    32768
280
     0
281
     0
  0
CLASS
  1
LWPOLYLINE
  2
AcDbPolyline
  3
AutoCAD 2000
 90
    32768
280
     0
281
     1
  0
CLASS
  1
HATCH
  2
AcDbHatch
  3
AutoCAD 2000
 90
    32768
280
     0
281
     1
  0
CLASS
  1
XRECORD
  2
AcDbXrecord
  3
AutoCAD 2000
 90
    32768
280
     0
281
     0
  0
ENDSEC
  0
SECTION
  2
TABLES
  0
TABLE
  2
VPORT
  5
8
330
0
100
AcDbSymbolTable
 70
     2
  0
VPORT
  5
53
330
8
100
AcDbSymbolTableRecord
100
AcDbViewportTableRecord
  2
*ACTIVE
 70
     0
 10
0.0
 20
0.0
 11
1.0
 21
1.0
 12
286.6460000291038
 22
37.32202864771525
 13
0.0
 23
0.0
 14
1.0
 24
1.0
 15
0.0
 25
0.0
 16
0.0
 26
0.0
 36
1.0
 17
0.0
 27
0.0
 37
0.0
 40
14.98653493615794
 41
1.262195121951219
 42
50.0
 43
0.0
 44
0.0
 50
0.0
 51
0.0
 71
     0
 72
   100
 73
     1
 74
     1
 75
     0
 76
     0
 77
     0
 78
     0
  0
ENDTAB
  0
TABLE
  2
LTYPE
  5
5
330
0
100
AcDbSymbolTable
 70
     1
  0
LTYPE
  5
13
330
5
100
AcDbSymbolTableRecord
100
AcDbLinetypeTableRecord
  2
BYBLOCK
 70
     0
  3

 72
    65
 73
     0
 40
0.0
  0
LTYPE
  5
14
330
5
100
AcDbSymbolTableRecord
100
AcDbLinetypeTableRecord
  2
BYLAYER
 70
     0
  3

 72
    65
 73
     0
 40
0.0
  0
LTYPE
  5
15
330
5
100
AcDbSymbolTableRecord
100
AcDbLinetypeTableRecord
  2
CONTINUOUS
 70
     0
  3
Solid line
 72
    65
 73
     0
 40
0.0
  0
ENDTAB
  0
TABLE
  2
LAYER
  5
2
330
0
100
AcDbSymbolTable
 70
     7
  0
LAYER
  5
10
330
2
100
AcDbSymbolTableRecord
100
AcDbLayerTableRecord
  2
0
 70
     0
 62
     7
  6
CONTINUOUS
  0
LAYER
  5
22
330
2
100
AcDbSymbolTableRecord
100
AcDbLayerTableRecord
  2
1
 70
     0
 62
     7
  6
CONTINUOUS
  0
LAYER
  5
23
330
2
100
AcDbSymbolTableRecord
100
AcDbLayerTableRecord
  2
7
 70
     0
 62
     7
  6
CONTINUOUS
  0
LAYER
  5
24
330
2
100
AcDbSymbolTableRecord
100
AcDbLayerTableRecord
  2
8
 70
     0
 62
     7
  6
CONTINUOUS
  0
LAYER
  5
25
330
2
100
AcDbSymbolTableRecord
100
AcDbLayerTableRecord
  2
9
 70
     0
 62
     7
  6
CONTINUOUS
  0
LAYER
  5
26
330
2
100
AcDbSymbolTableRecord
100
AcDbLayerTableRecord
  2
22
 70
     0
 62
     7
  6
CONTINUOUS
  0
LAYER
  5
27
330
2
100
AcDbSymbolTableRecord
100
AcDbLayerTableRecord
  2
25
 70
     0
 62
     7
  6
CONTINUOUS
  0
ENDTAB
  0
TABLE
  2
STYLE
  5
3
330
0
100
AcDbSymbolTable
 70
     2
  0
STYLE
  5
11
330
3
100
AcDbSymbolTableRecord
100
AcDbTextStyleTableRecord
  2
STANDARD
 70
     0
 40
0.0
 41
1.0
 50
0.0
 71
     0
 42
0.2
  3
txt
  4

  0
STYLE
  5
28
330
3
100
AcDbSymbolTableRecord
100
AcDbTextStyleTableRecord
  2
ROMANC
 70
     0
 40
0.0
 41
1.0
 50
0.0
 71
     0
 42
0.2
  3
ROMANC
  4

  0
ENDTAB
  0
TABLE
  2
VIEW
  5
6
330
0
100
AcDbSymbolTable
 70
     0
  0
ENDTAB
  0
TABLE
  2
UCS
  5
7
330
0
100
AcDbSymbolTable
 70
     0
  0
ENDTAB
  0
TABLE
  2
APPID
  5
9
330
0
100
AcDbSymbolTable
 70
     1
  0
APPID
  5
12
330
9
100
AcDbSymbolTableRecord
100
AcDbRegAppTableRecord
  2
ACAD
 70
     0
  0
ENDTAB
  0
TABLE
  2
DIMSTYLE
  5
A
330
0
100
AcDbSymbolTable
 70
     1
  0
DIMSTYLE
105
51
330
A
100
AcDbSymbolTableRecord
100
AcDbDimStyleTableRecord
  2
STANDARD
 70
     0
  3

  4

  5

  6

  7

 40
1.0
 41
0.18
 42
0.0625
 43
0.38
 44
0.18
 45
0.0
 46
0.0
 47
0.0
 48
0.0
140
0.18
141
0.09
142
0.0
143
25.4
144
1.0
145
0.0
146
1.0
147
0.09
 71
     0
 72
     0
 73
     1
 74
     1
 75
     0
 76
     0
 77
     0
 78
     0
170
     0
171
     2
172
     0
173
     0
174
     0
175
     0
176
     0
177
     0
178
     0
270
     2
271
     4
272
     4
273
     2
274
     2
340
11
275
     0
280
     0
281
     0
282
     0
283
     1
284
     0
285
     0
286
     0
287
     3
288
     0
  0
ENDTAB
  0
TABLE
  2
BLOCK_RECORD
  5
1
330
0
100
AcDbSymbolTable
 70
     0
  0
BLOCK_RECORD
  5
1E
102
{ACAD_XDICTIONARY
360
56
102
}
330
1
100
AcDbSymbolTableRecord
100
AcDbBlockTableRecord
  2
*MODEL_SPACE
  0
BLOCK_RECORD
  5
1A
102
{ACAD_XDICTIONARY
360
54
102
}
330
1
100
AcDbSymbolTableRecord
100
AcDbBlockTableRecord
  2
*PAPER_SPACE
  0
ENDTAB
  0
ENDSEC
  0
SECTION
  2
BLOCKS
  0
BLOCK
  5
1F
330
1E
100
AcDbEntity
  8
0
100
AcDbBlockBegin
  2
*MODEL_SPACE
 70
     0
 10
0.0
 20
0.0
 30
0.0
  3
*MODEL_SPACE
  1

  0
ENDBLK
  5
20
330
1E
100
AcDbEntity
  8
0
100
AcDbBlockEnd
  0
BLOCK
  5
1B
330
1A
100
AcDbEntity
 67
     1
  8
0
100
AcDbBlockBegin
  2
*PAPER_SPACE
 70
     0
 10
0.0
 20
0.0
 30
0.0
  3
*PAPER_SPACE
  1

  0
ENDBLK
  5
1C
330
1A
100
AcDbEntity
 67
     1
  8
0
100
AcDbBlockEnd
  0
ENDSEC
  0
SECTION
  2
ENTITIES
  0
TEXT
  5
2C
330
1E
100
AcDbEntity
  8
0
  6
CONTINUOUS
100
AcDbText
 10
286.9089999999999
 20
41.32399999999999
 30
0.0
 40
0.1
  1
2
  7
ROMANC
100
AcDbText
  0
TEXT
  5
2D
330
1E
100
AcDbEntity
  8
0
  6
CONTINUOUS
100
AcDbText
 10
283.9259999999999
 20
41.768
 30
0.0
 40
0.3
  1
ESCALA  1:50
  7
ROMANC
100
AcDbText
  0
POLYLINE
  5
2E
330
1E
100
AcDbEntity
  8
0
  6
CONTINUOUS
100
AcDb2dPolyline
 66
     1
 10
0.0
 20
0.0
 30
0.0
 70
     1
  0
VERTEX
  5
58
330
2E
100
AcDbEntity
  8
0
  6
CONTINUOUS
100
AcDbVertex
100
AcDb2dVertex
 10
281.396
 20
44.747
 30
0.0
  0
VERTEX
  5
59
330
2E
100
AcDbEntity
  8
0
  6
CONTINUOUS
100
AcDbVertex
100
AcDb2dVertex
 10
291.896
 20
44.747
 30
0.0
  0
VERTEX
  5
5A
330
2E
100
AcDbEntity
  8
0
  6
CONTINUOUS
100
AcDbVertex
100
AcDb2dVertex
 10
291.896
 20
29.897
 30
0.0
  0
VERTEX
  5
5B
330
2E
100
AcDbEntity
  8
0
  6
CONTINUOUS
100
AcDbVertex
100
AcDb2dVertex
 10
281.396
 20
29.897
 30
0.0
  0
SEQEND
  5
5C
330
2E
100
AcDbEntity
  8
0
  6
CONTINUOUS
  0
TEXT
  5
34
330
1E
100
AcDbEntity
  8
0
  6
CONTINUOUS
100
AcDbText
 10
283.9259999999999
 20
42.381
 30
0.0
 40
0.3
  1
TIPUS   T170A
  7
ROMANC
100
AcDbText
  0
LINE
  5
35
330
1E
100
AcDbEntity
  8
1
  6
CONTINUOUS
100
AcDbLine
 10
287.151
 20
32.972
 30
0.0
 11
286.1509999999999
 21
32.972
 31
0.0
  0
LINE
  5
36
330
1E
100
AcDbEntity
  8
1
  6
CONTINUOUS
100
AcDbLine
 10
286.1509999999999
 20
32.972
 30
0.0
 11
286.1509999999999
 21
34.672
 31
0.0
  0
TEXT
  5
37
330
1E
100
AcDbEntity
  8
0
  6
CONTINUOUS
100
AcDbText
 10
283.922
 20
40.529
 30
0.0
 40
0.3
  1
P = 54 dm
  7
ROMANC
100
AcDbText
  0
TEXT
  5
38
330
1E
100
AcDbEntity
  8
0
  6
CONTINUOUS
100
AcDbText
 10
283.9449999999999
 20
41.09899999999999
 30
0.0
 40
0.3
  1
S = 170 dm
  7
ROMANC
100
AcDbText
  0
LINE
  5
39
330
1E
100
AcDbEntity
  8
1
  6
CONTINUOUS
100
AcDbLine
 10
286.1509999999999
 20
34.672
 30
0.0
 11
287.151
 21
34.672
 31
0.0
  0
TEXT
  5
3A
330
1E
100
AcDbEntity
  8
1
  6
CONTINUOUS
100
AcDbText
 10
286.541
 20
34.824
 30
0.0
 40
0.075
  1
1.00
  7
ROMANC
100
AcDbText
  0
LINE
  5
3B
330
1E
100
AcDbEntity
  8
1
  6
CONTINUOUS
100
AcDbLine
 10
286.5029999999999
 20
34.862
 30
0.0
 11
286.1509999999999
 21
34.862
 31
0.0
  0
LINE
  5
3C
330
1E
100
AcDbEntity
  8
1
  6
CONTINUOUS
100
AcDbLine
 10
286.798
 20
34.862
 30
0.0
 11
287.151
 21
34.862
 31
0.0
  0
LINE
  5
3D
330
1E
100
AcDbEntity
  8
1
  6
CONTINUOUS
100
AcDbLine
 10
286.1139999999999
 20
34.843
 30
0.0
 11
286.1879999999999
 21
34.881
 31
0.0
  0
LINE
  5
3E
330
1E
100
AcDbEntity
  8
1
  6
CONTINUOUS
100
AcDbLine
 10
287.1879999999999
 20
34.881
 30
0.0
 11
287.114
 21
34.843
 31
0.0
  0
LINE
  5
3F
330
1E
100
AcDbEntity
  8
1
  6
CONTINUOUS
100
AcDbLine
 10
286.1509999999999
 20
34.71
 30
0.0
 11
286.1509999999999
 21
34.9
 31
0.0
  0
LINE
  5
40
330
1E
100
AcDbEntity
  8
1
  6
CONTINUOUS
100
AcDbLine
 10
287.151
 20
34.71
 30
0.0
 11
287.151
 21
34.9
 31
0.0
  0
LINE
  5
41
330
1E
100
AcDbEntity
  8
1
  6
CONTINUOUS
100
AcDbLine
 10
287.151
 20
34.672
 30
0.0
 11
287.151
 21
32.972
 31
0.0
  0
TEXT
  5
42
330
1E
100
AcDbEntity
  8
1
  6
CONTINUOUS
100
AcDbText
 10
287.344
 20
33.712
 30
0.0
 40
0.075
  1
1.70
 50
90.0
  7
ROMANC
100
AcDbText
  0
LINE
  5
43
330
1E
100
AcDbEntity
  8
1
  6
CONTINUOUS
100
AcDbLine
 10
287.3059999999999
 20
33.67399999999999
 30
0.0
 11
287.3059999999999
 21
32.972
 31
0.0
  0
LINE
  5
44
330
1E
100
AcDbEntity
  8
1
  6
CONTINUOUS
100
AcDbLine
 10
287.3059999999999
 20
33.969
 30
0.0
 11
287.3059999999999
 21
34.672
 31
0.0
  0
LINE
  5
45
330
1E
100
AcDbEntity
  8
1
  6
CONTINUOUS
100
AcDbLine
 10
287.325
 20
32.934
 30
0.0
 11
287.2869999999999
 21
33.01
 31
0.0
  0
LINE
  5
46
330
1E
100
AcDbEntity
  8
1
  6
CONTINUOUS
100
AcDbLine
 10
287.2869999999999
 20
34.71
 30
0.0
 11
287.325
 21
34.634
 31
0.0
  0
LINE
  5
47
330
1E
100
AcDbEntity
  8
1
  6
CONTINUOUS
100
AcDbLine
 10
287.189
 20
32.972
 30
0.0
 11
287.344
 21
32.972
 31
0.0
  0
LINE
  5
48
330
1E
100
AcDbEntity
  8
1
  6
CONTINUOUS
100
AcDbLine
 10
287.189
 20
34.672
 30
0.0
 11
287.344
 21
34.672
 31
0.0
  0
LINE
  5
49
330
1E
100
AcDbEntity
  8
1
  6
CONTINUOUS
100
AcDbLine
 10
286.141
 20
32.962
 30
0.0
 11
286.141
 21
34.682
 31
0.0
  0
LINE
  5
4A
330
1E
100
AcDbEntity
  8
1
  6
CONTINUOUS
100
AcDbLine
 10
286.1309999999999
 20
32.95199999999999
 30
0.0
 11
286.1309999999999
 21
34.692
 31
0.0
  0
LINE
  5
4B
330
1E
100
AcDbEntity
  8
1
  6
CONTINUOUS
100
AcDbLine
 10
287.161
 20
32.962
 30
0.0
 11
286.141
 21
32.962
 31
0.0
  0
LINE
  5
4C
330
1E
100
AcDbEntity
  8
1
  6
CONTINUOUS
100
AcDbLine
 10
287.1709999999999
 20
32.95199999999999
 30
0.0
 11
286.1309999999999
 21
32.95199999999999
 31
0.0
  0
LINE
  5
4D
330
1E
100
AcDbEntity
  8
1
  6
CONTINUOUS
100
AcDbLine
 10
287.161
 20
34.682
 30
0.0
 11
287.161
 21
32.962
 31
0.0
  0
LINE
  5
4E
330
1E
100
AcDbEntity
  8
1
  6
CONTINUOUS
100
AcDbLine
 10
287.1709999999999
 20
34.692
 30
0.0
 11
287.1709999999999
 21
32.95199999999999
 31
0.0
  0
LINE
  5
4F
330
1E
100
AcDbEntity
  8
1
  6
CONTINUOUS
100
AcDbLine
 10
286.141
 20
34.682
 30
0.0
 11
287.161
 21
34.682
 31
0.0
  0
LINE
  5
50
330
1E
100
AcDbEntity
  8
1
  6
CONTINUOUS
100
AcDbLine
 10
286.1309999999999
 20
34.692
 30
0.0
 11
287.1709999999999
 21
34.692
 31
0.0
  0
ENDSEC
  0
SECTION
  2
OBJECTS
  0
DICTIONARY
  5
C
330
0
100
AcDbDictionary
  3
ACAD_GROUP
350
D
  3
ACAD_MLINESTYLE
350
16
  3
ACAD_PLOTSETTINGS
350
18
  3
ACAD_LAYOUT
350
19
1001
ACAD
1000
TREAT_AS_HARD
1070
     0
  0
DICTIONARY
  5
56
330
1E
100
AcDbDictionary
  3
ACAD_LAYOUTSELFREF
350
57
  0
DICTIONARY
  5
54
330
1A
100
AcDbDictionary
  3
ACAD_LAYOUTSELFREF
350
55
  0
DICTIONARY
  5
D
102
{ACAD_REACTORS
330
C
102
}
330
C
100
AcDbDictionary
1001
ACAD
1000
TREAT_AS_HARD
1070
     0
  0
DICTIONARY
  5
16
102
{ACAD_REACTORS
330
C
102
}
330
C
100
AcDbDictionary
  3
STANDARD
350
17
1001
ACAD
1000
TREAT_AS_HARD
1070
     0
  0
DICTIONARY
  5
18
102
{ACAD_REACTORS
330
C
102
}
330
C
100
AcDbDictionary
1001
ACAD
1000
TREAT_AS_HARD
1070
     0
  0
DICTIONARY
  5
19
102
{ACAD_REACTORS
330
C
102
}
330
C
100
AcDbDictionary
1001
ACAD
1000
TREAT_AS_HARD
1070
     0
  0
XRECORD
  5
57
102
{ACAD_REACTORS
330
56
102
}
330
56
100
AcDbXrecord
340
1E
  0
XRECORD
  5
55
102
{ACAD_REACTORS
330
54
102
}
330
54
100
AcDbXrecord
340
1A
  0
MLINESTYLE
  5
17
102
{ACAD_REACTORS
330
16
102
}
330
16
100
AcDbMlineStyle
  2
STANDARD
 70
     0
  3

 62
   256
 51
90.0
 52
90.0
 71
     2
 49
0.5
 62
   256
  6
BYLAYER
 49
-0.5
 62
   256
  6
BYLAYER
  0
ENDSEC
  0
EOF
