  0
SECTION
  2
HEADER
  9
$ACADVER
  1
AC1009
  9
$INSBASE
 10
0.0
 20
0.0
 30
0.0
  9
$EXTMIN
 10
281.396000
 20
29.897000
 30
-2147483.648000
  9
$EXTMAX
 10
291.896000
 20
44.747000
 30
0.000000
  9
$LIMMIN
 10
280.396000
 20
28.897000
  9
$LIMMAX
 10
292.896000
 20
43.747000
  9
$ORTHOMODE
 70
     0
  9
$REGENMODE
 70
     1
  9
$FILLMODE
 70
     1
  9
$QTEXTMODE
 70
     0
  9
$MIRRTEXT
 70
     1
  9
$DRAGMODE
 70
     2
  9
$LTSCALE
 40
1.0
  9
$OSMODE
 70
     0
  9
$ATTMODE
 70
     1
  9
$TEXTSIZE
 40
0.2
  9
$TRACEWID
 40
0.05
  9
$TEXTSTYLE
  7
STANDARD
  9
$CLAYER
  8
0
  9
$CELTYPE
  6
BYLAYER
  9
$CECOLOR
 62
   256
  9
$DIMSCALE
 40
1.0
  9
$DIMASZ
 40
0.18
  9
$DIMEXO
 40
0.0625
  9
$DIMDLI
 40
0.38
  9
$DIMRND
 40
0.0
  9
$DIMDLE
 40
0.0
  9
$DIMEXE
 40
0.18
  9
$DIMTP
 40
0.0
  9
$DIMTM
 40
0.0
  9
$DIMTXT
 40
0.18
  9
$DIMCEN
 40
0.09
  9
$DIMTSZ
 40
0.0
  9
$DIMTOL
 70
     0
  9
$DIMLIM
 70
     0
  9
$DIMTIH
 70
     1
  9
$DIMTOH
 70
     1
  9
$DIMSE1
 70
     0
  9
$DIMSE2
 70
     0
  9
$DIMTAD
 70
     0
  9
$DIMZIN
 70
     0
  9
$DIMBLK
  1

  9
$DIMASO
 70
     1
  9
$DIMSHO
 70
     1
  9
$DIMPOST
  1

  9
$DIMAPOST
  1

  9
$DIMALT
 70
     0
  9
$DIMALTD
 70
     2
  9
$DIMALTF
 40
25.4
  9
$DIMLFAC
 40
1.0
  9
$DIMTOFL
 70
     0
  9
$DIMTVP
 40
0.0
  9
$DIMTIX
 70
     0
  9
$DIMSOXD
 70
     0
  9
$DIMSAH
 70
     0
  9
$DIMBLK1
  1

  9
$DIMBLK2
  1

  9
$DIMSTYLE
  2
*UNNAMED
  9
$DIMCLRD
 70
     0
  9
$DIMCLRE
 70
     0
  9
$DIMCLRT
 70
     0
  9
$DIMTFAC
 40
1.0
  9
$DIMGAP
 40
0.09
  9
$LUNITS
 70
     2
  9
$LUPREC
 70
     4
  9
$AXISMODE
 70
     0
  9
$AXISUNIT
 10
0.0
 20
0.0
  9
$SKETCHINC
 40
0.1
  9
$FILLETRAD
 40
0.0
  9
$AUNITS
 70
     0
  9
$AUPREC
 70
     0
  9
$MENU
  1
acad
  9
$ELEVATION
 40
0.0
  9
$PELEVATION
 40
0.0
  9
$THICKNESS
 40
0.0
  9
$LIMCHECK
 70
     0
  9
$BLIPMODE
 70
     1
  9
$CHAMFERA
 40
0.0
  9
$CHAMFERB
 40
0.0
  9
$SKPOLY
 70
     0
  9
$TDCREATE
 40
2448315.373408102
  9
$TDUPDATE
 40
2448315.373408102
  9
$TDINDWG
 40
0.0000000000
  9
$TDUSRTIMER
 40
0.0000000000
  9
$USRTIMER
 70
     1
  9
$ANGBASE
 50
0.0
  9
$ANGDIR
 70
     0
  9
$PDMODE
 70
     0
  9
$PDSIZE
 40
0.0
  9
$PLINEWID
 40
0.0
  9
$COORDS
 70
     0
  9
$SPLFRAME
 70
     0
  9
$SPLINETYPE
 70
     6
  9
$SPLINESEGS
 70
     8
  9
$ATTDIA
 70
     0
  9
$ATTREQ
 70
     1
  9
$HANDLING
 70
     0
  9
$HANDSEED
  5
0
  9
$SURFTAB1
 70
     6
  9
$SURFTAB2
 70
     6
  9
$SURFTYPE
 70
     6
  9
$SURFU
 70
     6
  9
$SURFV
 70
     6
  9
$UCSNAME
  2

  9
$UCSORG
 10
0.0
 20
0.0
 30
0.0
  9
$UCSXDIR
 10
1.0
 20
0.0
 30
0.0
  9
$UCSYDIR
 10
0.0
 20
1.0
 30
0.0
  9
$PUCSNAME
  2

  9
$PUCSORG
 10
0.0
 20
0.0
 30
0.0
  9
$PUCSXDIR
 10
1.0
 20
0.0
 30
0.0
  9
$PUCSYDIR
 10
0.0
 20
1.0
 30
0.0
  9
$USERI1
 70
     0
  9
$USERI2
 70
     0
  9
$USERI3
 70
     0
  9
$USERI4
 70
     0
  9
$USERI5
 70
     0
  9
$USERR1
 40
0.0
  9
$USERR2
 40
0.0
  9
$USERR3
 40
0.0
  9
$USERR4
 40
0.0
  9
$USERR5
 40
0.0
  9
$WORLDVIEW
 70
     1
  9
$SHADEDGE
 70
     3
  9
$SHADEDIF
 70
    70
  9
$TILEMODE
 70
     1
  9
$MAXACTVP
 70
    16
  9
$PINSBASE
 10
0.0
 20
0.0
 30
0.0
  9
$PLIMCHECK
 70
     0
  9
$PEXTMIN
 10
1.000000E+20
 20
1.000000E+20
 30
1.000000E+20
  9
$PEXTMAX
 10
-1.000000E+20
 20
-1.000000E+20
 30
-1.000000E+20
  9
$PLIMMIN
 10
0.0
 20
0.0
  9
$PLIMMAX
 10
12.0
 20
9.0
  9
$UNITMODE
 70
     0
  9
$VISRETAIN
 70
     0
  0
ENDSEC
  0
SECTION
  2
TABLES
  0
TABLE
  2
LTYPE
 70
    1
  0
LTYPE
  2
CONTINUOUS
 70
    64
3
Solid line
 72
    65
 73
0
 40
0.000000
  0
ENDTAB
  0
TABLE
  2
LAYER
 70
    8
  0
LAYER
  2
0
 70
    64
 62
7
  6
CONTINUOUS
  0
LAYER
  2
1
 70
    64
 62
7
  6
CONTINUOUS
  0
LAYER
  2
7
 70
    64
 62
7
  6
CONTINUOUS
  0
LAYER
  2
8
 70
    64
 62
7
  6
CONTINUOUS
  0
LAYER
  2
9
 70
    64
 62
7
  6
CONTINUOUS
  0
LAYER
  2
22
 70
    64
 62
7
  6
CONTINUOUS
  0
LAYER
  2
25
 70
    64
 62
7
  6
CONTINUOUS
  0
LAYER
  2
0
 70
    64
 62
7
  6
CONTINUOUS
  0
ENDTAB
  0
TABLE
  2
STYLE
 70
    1
  0
STYLE
  2
ROMANC
70
     0
 40
0.0
 41
1.0
 50
0.0
 71
     0
 42
0.2
  3
ROMANC
  4

  0
ENDTAB
  0
ENDSEC
  0
SECTION
  2
BLOCKS
  0
ENDSEC
  0
SECTION
  2
ENTITIES
  0
TEXT
  8
0
  6
CONTINUOUS
 40
0.100000
 10
286.909000
 20
41.324000
  1
2
  7
ROMANC
  0
TEXT
  8
0
  6
CONTINUOUS
 40
0.300000
 10
283.926000
 20
41.768000
  1
ESCALA  1:50
  7
ROMANC
  0
POLYLINE
  8
0
  6
CONTINUOUS
 66
     1
 70
     1
  0
VERTEX
  8
0
  6
CONTINUOUS
 10
281.396000
 20
44.747000
  0
VERTEX
  8
0
  6
CONTINUOUS
 10
291.896000
 20
44.747000
  0
VERTEX
  8
0
  6
CONTINUOUS
 10
291.896000
 20
29.897000
  0
VERTEX
  8
0
  6
CONTINUOUS
 10
281.396000
 20
29.897000
  0
SEQEND
  8
0
  0
TEXT
  8
0
  6
CONTINUOUS
 40
0.300000
 10
283.926000
 20
42.381000
  1
TIPUS   T170C
  7
ROMANC
  0
POLYLINE
  8
1
  6
CONTINUOUS
 66
     1
 70
     0
  0
VERTEX
  8
1
  6
CONTINUOUS
 10
286.082000
 20
34.278000
 42
0.016322
  0
VERTEX
  8
1
  6
CONTINUOUS
 10
286.087056
 20
34.122364
 42
0.016967
  0
VERTEX
  8
1
  6
CONTINUOUS
 10
286.102445
 20
33.967417
 42
0.017395
  0
VERTEX
  8
1
  6
CONTINUOUS
 10
286.127074
 20
33.821586
 42
0.019560
  0
VERTEX
  8
1
  6
CONTINUOUS
 10
286.162385
 20
33.678000
 42
0.020572
  0
VERTEX
  8
1
  6
CONTINUOUS
 10
286.204408
 20
33.551528
 42
0.025066
  0
VERTEX
  8
1
  6
CONTINUOUS
 10
286.257736
 20
33.429472
 42
0.027056
  0
VERTEX
  8
1
  6
CONTINUOUS
 10
286.313966
 20
33.330180
 42
0.035428
  0
VERTEX
  8
1
  6
CONTINUOUS
 10
286.382000
 20
33.238770
 42
0.039107
  0
VERTEX
  8
1
  6
CONTINUOUS
 10
286.449028
 20
33.172168
 42
0.052063
  0
VERTEX
  8
1
  6
CONTINUOUS
 10
286.526709
 20
33.118889
 42
0.057060
  0
VERTEX
  8
1
  6
CONTINUOUS
 10
286.601974
 20
33.088963
 42
0.065631
  0
VERTEX
  8
1
  6
CONTINUOUS
 10
286.682000
 20
33.078000
 42
0.065631
  0
VERTEX
  8
1
  6
CONTINUOUS
 10
286.762026
 20
33.088963
 42
0.057060
  0
VERTEX
  8
1
  6
CONTINUOUS
 10
286.837291
 20
33.118889
 42
0.052063
  0
VERTEX
  8
1
  6
CONTINUOUS
 10
286.914972
 20
33.172168
 42
0.039107
  0
VERTEX
  8
1
  6
CONTINUOUS
 10
286.982000
 20
33.238770
 42
0.035428
  0
VERTEX
  8
1
  6
CONTINUOUS
 10
287.050034
 20
33.330180
 42
0.027056
  0
VERTEX
  8
1
  6
CONTINUOUS
 10
287.106264
 20
33.429472
 42
0.025066
  0
VERTEX
  8
1
  6
CONTINUOUS
 10
287.159592
 20
33.551528
 42
0.020572
  0
VERTEX
  8
1
  6
CONTINUOUS
 10
287.201615
 20
33.678000
 42
0.019560
  0
VERTEX
  8
1
  6
CONTINUOUS
 10
287.236926
 20
33.821586
 42
0.017395
  0
VERTEX
  8
1
  6
CONTINUOUS
 10
287.261555
 20
33.967417
 42
0.016967
  0
VERTEX
  8
1
  6
CONTINUOUS
 10
287.276944
 20
34.122364
 42
0.016322
  0
VERTEX
  8
1
  6
CONTINUOUS
 10
287.282000
 20
34.278000
  0
SEQEND
  8
0
  0
TEXT
  8
0
  6
CONTINUOUS
 40
0.300000
 10
283.945000
 20
41.099000
  1
S = 169 dm
  7
ROMANC
  0
TEXT
  8
0
  6
CONTINUOUS
 40
0.300000
 10
283.922000
 20
40.529000
  1
P = 48 dm
  7
ROMANC
  0
ARC
  8
1
  6
CONTINUOUS
 10
286.682000
 20
34.278000
 40
0.600000
 50
0.000000
 51
180.000000
  0
TEXT
  8
1
  6
CONTINUOUS
 40
0.075000
 10
286.572000
 20
35.036000
  1
1.20
  7
ROMANC
  0
LINE
  8
1
  6
CONTINUOUS
 10
286.534000
 20
35.073000
 11
286.082000
 21
35.073000
  0
LINE
  8
1
  6
CONTINUOUS
 10
286.829000
 20
35.073000
 11
287.282000
 21
35.073000
  0
LINE
  8
1
  6
CONTINUOUS
 10
286.044000
 20
35.054000
 11
286.120000
 21
35.092000
  0
LINE
  8
1
  6
CONTINUOUS
 10
287.320000
 20
35.092000
 11
287.244000
 21
35.054000
  0
LINE
  8
1
  6
CONTINUOUS
 10
286.082000
 20
34.316000
 11
286.082000
 21
35.111000
  0
LINE
  8
1
  6
CONTINUOUS
 10
287.282000
 20
34.316000
 11
287.282000
 21
35.111000
  0
TEXT
  8
1
  6
CONTINUOUS
 40
0.075000
 10
287.504000
 20
33.868000
  1
1.80
 50
90.000000
  7
ROMANC
  0
LINE
  8
1
  6
CONTINUOUS
 10
287.466000
 20
33.830000
 11
287.466000
 21
33.078000
  0
LINE
  8
1
  6
CONTINUOUS
 10
287.466000
 20
34.125000
 11
287.466000
 21
34.878000
  0
LINE
  8
1
  6
CONTINUOUS
 10
287.485000
 20
33.040000
 11
287.447000
 21
33.116000
  0
LINE
  8
1
  6
CONTINUOUS
 10
287.447000
 20
34.916000
 11
287.485000
 21
34.840000
  0
LINE
  8
1
  6
CONTINUOUS
 10
286.720000
 20
33.078000
 11
287.504000
 21
33.078000
  0
LINE
  8
1
  6
CONTINUOUS
 10
286.720000
 20
34.878000
 11
287.504000
 21
34.878000
  0
POLYLINE
  8
1
  6
CONTINUOUS
 66
     1
 70
     0
  0
VERTEX
  8
1
  6
CONTINUOUS
 10
286.072000
 20
34.278000
 42
0.016458
  0
VERTEX
  8
1
  6
CONTINUOUS
 10
286.077141
 20
34.121061
 42
0.017103
  0
VERTEX
  8
1
  6
CONTINUOUS
 10
286.092785
 20
33.964829
 42
0.017533
  0
VERTEX
  8
1
  6
CONTINUOUS
 10
286.117829
 20
33.817765
 42
0.019701
  0
VERTEX
  8
1
  6
CONTINUOUS
 10
286.153725
 20
33.673000
 42
0.020713
  0
VERTEX
  8
1
  6
CONTINUOUS
 10
286.196461
 20
33.545443
 42
0.025200
  0
VERTEX
  8
1
  6
CONTINUOUS
 10
286.250665
 20
33.422401
 42
0.027183
  0
VERTEX
  8
1
  6
CONTINUOUS
 10
286.307863
 20
33.322238
 42
0.035493
  0
VERTEX
  8
1
  6
CONTINUOUS
 10
286.377000
 20
33.230109
 42
0.039135
  0
VERTEX
  8
1
  6
CONTINUOUS
 10
286.445198
 20
33.162912
 42
0.051872
  0
VERTEX
  8
1
  6
CONTINUOUS
 10
286.524120
 20
33.109230
 42
0.056751
  0
VERTEX
  8
1
  6
CONTINUOUS
 10
286.600674
 20
33.079042
 42
0.065091
  0
VERTEX
  8
1
  6
CONTINUOUS
 10
286.682000
 20
33.068000
 42
0.065091
  0
VERTEX
  8
1
  6
CONTINUOUS
 10
286.763326
 20
33.079042
 42
0.056751
  0
VERTEX
  8
1
  6
CONTINUOUS
 10
286.839880
 20
33.109230
 42
0.051872
  0
VERTEX
  8
1
  6
CONTINUOUS
 10
286.918802
 20
33.162912
 42
0.039135
  0
VERTEX
  8
1
  6
CONTINUOUS
 10
286.987000
 20
33.230109
 42
0.035493
  0
VERTEX
  8
1
  6
CONTINUOUS
 10
287.056137
 20
33.322238
 42
0.027183
  0
VERTEX
  8
1
  6
CONTINUOUS
 10
287.113335
 20
33.422401
 42
0.025200
  0
VERTEX
  8
1
  6
CONTINUOUS
 10
287.167539
 20
33.545443
 42
0.020713
  0
VERTEX
  8
1
  6
CONTINUOUS
 10
287.210275
 20
33.673000
 42
0.019701
  0
VERTEX
  8
1
  6
CONTINUOUS
 10
287.246171
 20
33.817765
 42
0.017533
  0
VERTEX
  8
1
  6
CONTINUOUS
 10
287.271215
 20
33.964829
 42
0.017103
  0
VERTEX
  8
1
  6
CONTINUOUS
 10
287.286859
 20
34.121061
 42
0.016458
  0
VERTEX
  8
1
  6
CONTINUOUS
 10
287.292000
 20
34.278000
  0
SEQEND
  8
0
  0
POLYLINE
  8
1
  6
CONTINUOUS
 66
     1
 70
     0
  0
VERTEX
  8
1
  6
CONTINUOUS
 10
286.062000
 20
34.278000
 42
0.016590
  0
VERTEX
  8
1
  6
CONTINUOUS
 10
286.067226
 20
34.119759
 42
0.017238
  0
VERTEX
  8
1
  6
CONTINUOUS
 10
286.083126
 20
33.962241
 42
0.017668
  0
VERTEX
  8
1
  6
CONTINUOUS
 10
286.108584
 20
33.813944
 42
0.019838
  0
VERTEX
  8
1
  6
CONTINUOUS
 10
286.145064
 20
33.668000
 42
0.020851
  0
VERTEX
  8
1
  6
CONTINUOUS
 10
286.188515
 20
33.539357
 42
0.025330
  0
VERTEX
  8
1
  6
CONTINUOUS
 10
286.243594
 20
33.415330
 42
0.027307
  0
VERTEX
  8
1
  6
CONTINUOUS
 10
286.301760
 20
33.314295
 42
0.035555
  0
VERTEX
  8
1
  6
CONTINUOUS
 10
286.372000
 20
33.221449
 42
0.039159
  0
VERTEX
  8
1
  6
CONTINUOUS
 10
286.441368
 20
33.153656
 42
0.051683
  0
VERTEX
  8
1
  6
CONTINUOUS
 10
286.521532
 20
33.099570
 42
0.056449
  0
VERTEX
  8
1
  6
CONTINUOUS
 10
286.599374
 20
33.069121
 42
0.064569
  0
VERTEX
  8
1
  6
CONTINUOUS
 10
286.682000
 20
33.058000
 42
0.064569
  0
VERTEX
  8
1
  6
CONTINUOUS
 10
286.764626
 20
33.069121
 42
0.056449
  0
VERTEX
  8
1
  6
CONTINUOUS
 10
286.842468
 20
33.099570
 42
0.051683
  0
VERTEX
  8
1
  6
CONTINUOUS
 10
286.922632
 20
33.153656
 42
0.039159
  0
VERTEX
  8
1
  6
CONTINUOUS
 10
286.992000
 20
33.221449
 42
0.035555
  0
VERTEX
  8
1
  6
CONTINUOUS
 10
287.062240
 20
33.314295
 42
0.027307
  0
VERTEX
  8
1
  6
CONTINUOUS
 10
287.120406
 20
33.415330
 42
0.025330
  0
VERTEX
  8
1
  6
CONTINUOUS
 10
287.175485
 20
33.539357
 42
0.020851
  0
VERTEX
  8
1
  6
CONTINUOUS
 10
287.218936
 20
33.668000
 42
0.019838
  0
VERTEX
  8
1
  6
CONTINUOUS
 10
287.255416
 20
33.813944
 42
0.017668
  0
VERTEX
  8
1
  6
CONTINUOUS
 10
287.280874
 20
33.962241
 42
0.017238
  0
VERTEX
  8
1
  6
CONTINUOUS
 10
287.296774
 20
34.119759
 42
0.016590
  0
VERTEX
  8
1
  6
CONTINUOUS
 10
287.302000
 20
34.278000
  0
SEQEND
  8
0
  0
ARC
  8
1
  6
CONTINUOUS
 10
286.682000
 20
34.278000
 40
0.610000
 50
0.000000
 51
180.000000
  0
ARC
  8
1
  6
CONTINUOUS
 10
286.682000
 20
34.278000
 40
0.620000
 50
0.000000
 51
180.000000
  0
ENDSEC
  0
EOF
