  0
SECTION
  2
HEADER
  9
$ACADVER
  1
AC1009
  9
$INSBASE
 10
0.0
 20
0.0
 30
0.0
  9
$EXTMIN
 10
281.396000
 20
29.897000
 30
-2147483.648000
  9
$EXTMAX
 10
283.496000
 20
32.867000
 30
0.000000
  9
$LIMMIN
 10
280.396000
 20
28.897000
  9
$LIMMAX
 10
284.496000
 20
31.867000
  9
$ORTHOMODE
 70
     0
  9
$REGENMODE
 70
     1
  9
$FILLMODE
 70
     1
  9
$QTEXTMODE
 70
     0
  9
$MIRRTEXT
 70
     1
  9
$DRAGMODE
 70
     2
  9
$LTSCALE
 40
1.0
  9
$OSMODE
 70
     0
  9
$ATTMODE
 70
     1
  9
$TEXTSIZE
 40
0.2
  9
$TRACEWID
 40
0.05
  9
$TEXTSTYLE
  7
STANDARD
  9
$CLAYER
  8
0
  9
$CELTYPE
  6
BYLAYER
  9
$CECOLOR
 62
   256
  9
$DIMSCALE
 40
1.0
  9
$DIMASZ
 40
0.18
  9
$DIMEXO
 40
0.0625
  9
$DIMDLI
 40
0.38
  9
$DIMRND
 40
0.0
  9
$DIMDLE
 40
0.0
  9
$DIMEXE
 40
0.18
  9
$DIMTP
 40
0.0
  9
$DIMTM
 40
0.0
  9
$DIMTXT
 40
0.18
  9
$DIMCEN
 40
0.09
  9
$DIMTSZ
 40
0.0
  9
$DIMTOL
 70
     0
  9
$DIMLIM
 70
     0
  9
$DIMTIH
 70
     1
  9
$DIMTOH
 70
     1
  9
$DIMSE1
 70
     0
  9
$DIMSE2
 70
     0
  9
$DIMTAD
 70
     0
  9
$DIMZIN
 70
     0
  9
$DIMBLK
  1

  9
$DIMASO
 70
     1
  9
$DIMSHO
 70
     1
  9
$DIMPOST
  1

  9
$DIMAPOST
  1

  9
$DIMALT
 70
     0
  9
$DIMALTD
 70
     2
  9
$DIMALTF
 40
25.4
  9
$DIMLFAC
 40
1.0
  9
$DIMTOFL
 70
     0
  9
$DIMTVP
 40
0.0
  9
$DIMTIX
 70
     0
  9
$DIMSOXD
 70
     0
  9
$DIMSAH
 70
     0
  9
$DIMBLK1
  1

  9
$DIMBLK2
  1

  9
$DIMSTYLE
  2
*UNNAMED
  9
$DIMCLRD
 70
     0
  9
$DIMCLRE
 70
     0
  9
$DIMCLRT
 70
     0
  9
$DIMTFAC
 40
1.0
  9
$DIMGAP
 40
0.09
  9
$LUNITS
 70
     2
  9
$LUPREC
 70
     4
  9
$AXISMODE
 70
     0
  9
$AXISUNIT
 10
0.0
 20
0.0
  9
$SKETCHINC
 40
0.1
  9
$FILLETRAD
 40
0.0
  9
$AUNITS
 70
     0
  9
$AUPREC
 70
     0
  9
$MENU
  1
acad
  9
$ELEVATION
 40
0.0
  9
$PELEVATION
 40
0.0
  9
$THICKNESS
 40
0.0
  9
$LIMCHECK
 70
     0
  9
$BLIPMODE
 70
     1
  9
$CHAMFERA
 40
0.0
  9
$CHAMFERB
 40
0.0
  9
$SKPOLY
 70
     0
  9
$TDCREATE
 40
2448315.373408102
  9
$TDUPDATE
 40
2448315.373408102
  9
$TDINDWG
 40
0.0000000000
  9
$TDUSRTIMER
 40
0.0000000000
  9
$USRTIMER
 70
     1
  9
$ANGBASE
 50
0.0
  9
$ANGDIR
 70
     0
  9
$PDMODE
 70
     0
  9
$PDSIZE
 40
0.0
  9
$PLINEWID
 40
0.0
  9
$COORDS
 70
     0
  9
$SPLFRAME
 70
     0
  9
$SPLINETYPE
 70
     6
  9
$SPLINESEGS
 70
     8
  9
$ATTDIA
 70
     0
  9
$ATTREQ
 70
     1
  9
$HANDLING
 70
     0
  9
$HANDSEED
  5
0
  9
$SURFTAB1
 70
     6
  9
$SURFTAB2
 70
     6
  9
$SURFTYPE
 70
     6
  9
$SURFU
 70
     6
  9
$SURFV
 70
     6
  9
$UCSNAME
  2

  9
$UCSORG
 10
0.0
 20
0.0
 30
0.0
  9
$UCSXDIR
 10
1.0
 20
0.0
 30
0.0
  9
$UCSYDIR
 10
0.0
 20
1.0
 30
0.0
  9
$PUCSNAME
  2

  9
$PUCSORG
 10
0.0
 20
0.0
 30
0.0
  9
$PUCSXDIR
 10
1.0
 20
0.0
 30
0.0
  9
$PUCSYDIR
 10
0.0
 20
1.0
 30
0.0
  9
$USERI1
 70
     0
  9
$USERI2
 70
     0
  9
$USERI3
 70
     0
  9
$USERI4
 70
     0
  9
$USERI5
 70
     0
  9
$USERR1
 40
0.0
  9
$USERR2
 40
0.0
  9
$USERR3
 40
0.0
  9
$USERR4
 40
0.0
  9
$USERR5
 40
0.0
  9
$WORLDVIEW
 70
     1
  9
$SHADEDGE
 70
     3
  9
$SHADEDIF
 70
    70
  9
$TILEMODE
 70
     1
  9
$MAXACTVP
 70
    16
  9
$PINSBASE
 10
0.0
 20
0.0
 30
0.0
  9
$PLIMCHECK
 70
     0
  9
$PEXTMIN
 10
1.000000E+20
 20
1.000000E+20
 30
1.000000E+20
  9
$PEXTMAX
 10
-1.000000E+20
 20
-1.000000E+20
 30
-1.000000E+20
  9
$PLIMMIN
 10
0.0
 20
0.0
  9
$PLIMMAX
 10
12.0
 20
9.0
  9
$UNITMODE
 70
     0
  9
$VISRETAIN
 70
     0
  0
ENDSEC
  0
SECTION
  2
TABLES
  0
TABLE
  2
LTYPE
 70
    1
  0
LTYPE
  2
CONTINUOUS
 70
    64
3
Solid line
 72
    65
 73
0
 40
0.000000
  0
ENDTAB
  0
TABLE
  2
LAYER
 70
    8
  0
LAYER
  2
0
 70
    64
 62
7
  6
CONTINUOUS
  0
LAYER
  2
1
 70
    64
 62
7
  6
CONTINUOUS
  0
LAYER
  2
7
 70
    64
 62
7
  6
CONTINUOUS
  0
LAYER
  2
8
 70
    64
 62
7
  6
CONTINUOUS
  0
LAYER
  2
9
 70
    64
 62
7
  6
CONTINUOUS
  0
LAYER
  2
22
 70
    64
 62
7
  6
CONTINUOUS
  0
LAYER
  2
25
 70
    64
 62
7
  6
CONTINUOUS
  0
LAYER
  2
0
 70
    64
 62
7
  6
CONTINUOUS
  0
ENDTAB
  0
TABLE
  2
STYLE
 70
    1
  0
STYLE
  2
ROMANC
70
     0
 40
0.0
 41
1.0
 50
0.0
 71
     0
 42
0.2
  3
ROMANC
  4

  0
ENDTAB
  0
ENDSEC
  0
SECTION
  2
BLOCKS
  0
ENDSEC
  0
SECTION
  2
ENTITIES
  0
POLYLINE
  8
0
  6
CONTINUOUS
 66
     1
 70
     1
  0
VERTEX
  8
0
  6
CONTINUOUS
 10
281.396000
 20
32.867000
  0
VERTEX
  8
0
  6
CONTINUOUS
 10
283.496000
 20
32.867000
  0
VERTEX
  8
0
  6
CONTINUOUS
 10
283.496000
 20
29.897000
  0
VERTEX
  8
0
  6
CONTINUOUS
 10
281.396000
 20
29.897000
  0
SEQEND
  8
0
  0
TEXT
  8
0
  6
CONTINUOUS
 40
0.060000
 10
282.015000
 20
32.425000
  1
ESCALA  1:10
  7
ROMANC
  0
TEXT
  8
0
  6
CONTINUOUS
 40
0.018000
 10
282.665000
 20
32.343000
  1
2
  7
ROMANC
  0
TEXT
  8
0
  6
CONTINUOUS
 40
0.060000
 10
282.018000
 20
32.539000
  1
TIPUS   T16A
  7
ROMANC
  0
TEXT
  8
0
  6
CONTINUOUS
 40
0.060000
 10
282.019000
 20
32.298000
  1
S = 16 dm
  7
ROMANC
  0
TEXT
  8
0
  6
CONTINUOUS
 40
0.060000
 10
282.019000
 20
32.166000
  1
P = 14 dm
  7
ROMANC
  0
ARC
  8
0
  6
CONTINUOUS
 10
282.440000
 20
30.929000
 40
0.200000
 50
360.000000
 51
540.000000
  0
POLYLINE
  8
0
  6
CONTINUOUS
 66
     1
 70
     0
  0
VERTEX
  8
0
  6
CONTINUOUS
 10
282.240000
 20
30.929000
 42
0.021774
  0
VERTEX
  8
0
  6
CONTINUOUS
 10
282.241694
 20
30.890025
 42
0.022404
  0
VERTEX
  8
0
  6
CONTINUOUS
 10
282.246815
 20
30.851354
 42
0.022823
  0
VERTEX
  8
0
  6
CONTINUOUS
 10
282.255084
 20
30.814697
 42
0.024822
  0
VERTEX
  8
0
  6
CONTINUOUS
 10
282.266795
 20
30.779000
 42
0.025736
  0
VERTEX
  8
0
  6
CONTINUOUS
 10
282.280981
 20
30.747051
 42
0.029382
  0
VERTEX
  8
0
  6
CONTINUOUS
 10
282.298579
 20
30.716868
 42
0.030906
  0
VERTEX
  8
0
  6
CONTINUOUS
 10
282.317701
 20
30.691630
 42
0.036313
  0
VERTEX
  8
0
  6
CONTINUOUS
 10
282.340000
 20
30.669192
 42
0.038405
  0
VERTEX
  8
0
  6
CONTINUOUS
 10
282.362898
 20
30.652207
 42
0.044394
  0
VERTEX
  8
0
  6
CONTINUOUS
 10
282.388236
 20
30.639222
 42
0.046245
  0
VERTEX
  8
0
  6
CONTINUOUS
 10
282.413642
 20
30.631651
 42
0.049152
  0
VERTEX
  8
0
  6
CONTINUOUS
 10
282.440000
 20
30.629000
 42
0.049152
  0
VERTEX
  8
0
  6
CONTINUOUS
 10
282.466358
 20
30.631651
 42
0.046245
  0
VERTEX
  8
0
  6
CONTINUOUS
 10
282.491764
 20
30.639222
 42
0.044394
  0
VERTEX
  8
0
  6
CONTINUOUS
 10
282.517102
 20
30.652207
 42
0.038405
  0
VERTEX
  8
0
  6
CONTINUOUS
 10
282.540000
 20
30.669192
 42
0.036313
  0
VERTEX
  8
0
  6
CONTINUOUS
 10
282.562299
 20
30.691630
 42
0.030906
  0
VERTEX
  8
0
  6
CONTINUOUS
 10
282.581421
 20
30.716868
 42
0.029382
  0
VERTEX
  8
0
  6
CONTINUOUS
 10
282.599019
 20
30.747051
 42
0.025736
  0
VERTEX
  8
0
  6
CONTINUOUS
 10
282.613205
 20
30.779000
 42
0.024822
  0
VERTEX
  8
0
  6
CONTINUOUS
 10
282.624916
 20
30.814697
 42
0.022823
  0
VERTEX
  8
0
  6
CONTINUOUS
 10
282.633185
 20
30.851354
 42
0.022404
  0
VERTEX
  8
0
  6
CONTINUOUS
 10
282.638306
 20
30.890025
 42
0.021774
  0
VERTEX
  8
0
  6
CONTINUOUS
 10
282.640000
 20
30.929000
  0
SEQEND
  8
0
  0
TEXT
  8
0
  6
CONTINUOUS
 40
0.018000
 10
282.410000
 20
31.191000
  1
0.40
  7
ROMANC
  0
LINE
  8
0
  6
CONTINUOUS
 10
282.401000
 20
31.200000
 11
282.240000
 21
31.200000
  0
LINE
  8
0
  6
CONTINUOUS
 10
282.477000
 20
31.200000
 11
282.640000
 21
31.200000
  0
LINE
  8
0
  6
CONTINUOUS
 10
282.231000
 20
31.196000
 11
282.249000
 21
31.204000
  0
LINE
  8
0
  6
CONTINUOUS
 10
282.649000
 20
31.204000
 11
282.631000
 21
31.196000
  0
LINE
  8
0
  6
CONTINUOUS
 10
282.240000
 20
30.938000
 11
282.240000
 21
31.209000
  0
LINE
  8
0
  6
CONTINUOUS
 10
282.640000
 20
30.938000
 11
282.640000
 21
31.209000
  0
TEXT
  8
0
  6
CONTINUOUS
 40
0.018000
 10
282.730000
 20
30.850000
  1
0.50
 50
90.000000
  7
ROMANC
  0
LINE
  8
0
  6
CONTINUOUS
 10
282.721000
 20
30.841000
 11
282.721000
 21
30.629000
  0
LINE
  8
0
  6
CONTINUOUS
 10
282.721000
 20
30.916000
 11
282.721000
 21
31.129000
  0
LINE
  8
0
  6
CONTINUOUS
 10
282.726000
 20
30.620000
 11
282.716000
 21
30.638000
  0
LINE
  8
0
  6
CONTINUOUS
 10
282.716000
 20
31.138000
 11
282.726000
 21
31.120000
  0
LINE
  8
0
  6
CONTINUOUS
 10
282.449000
 20
30.629000
 11
282.730000
 21
30.629000
  0
LINE
  8
0
  6
CONTINUOUS
 10
282.449000
 20
31.129000
 11
282.730000
 21
31.129000
  0
ARC
  8
0
  6
CONTINUOUS
 10
282.440000
 20
30.929000
 40
0.203000
 50
360.000000
 51
540.000000
  0
ARC
  8
0
  6
CONTINUOUS
 10
282.440000
 20
30.929000
 40
0.206000
 50
360.000000
 51
540.000000
  0
POLYLINE
  8
0
  6
CONTINUOUS
 66
     1
 70
     0
  0
VERTEX
  8
0
  6
CONTINUOUS
 10
282.237000
 20
30.929000
 42
0.021882
  0
VERTEX
  8
0
  6
CONTINUOUS
 10
282.238720
 20
30.889634
 42
0.022510
  0
VERTEX
  8
0
  6
CONTINUOUS
 10
282.243917
 20
30.850578
 42
0.022928
  0
VERTEX
  8
0
  6
CONTINUOUS
 10
282.252312
 20
30.813550
 42
0.024918
  0
VERTEX
  8
0
  6
CONTINUOUS
 10
282.264197
 20
30.777500
 42
0.025827
  0
VERTEX
  8
0
  6
CONTINUOUS
 10
282.278600
 20
30.745225
 42
0.029447
  0
VERTEX
  8
0
  6
CONTINUOUS
 10
282.296457
 20
30.714747
 42
0.030958
  0
VERTEX
  8
0
  6
CONTINUOUS
 10
282.315873
 20
30.689248
 42
0.036302
  0
VERTEX
  8
0
  6
CONTINUOUS
 10
282.338500
 20
30.666594
 42
0.038364
  0
VERTEX
  8
0
  6
CONTINUOUS
 10
282.361750
 20
30.649434
 42
0.044251
  0
VERTEX
  8
0
  6
CONTINUOUS
 10
282.387460
 20
30.636324
 42
0.046064
  0
VERTEX
  8
0
  6
CONTINUOUS
 10
282.413251
 20
30.628677
 42
0.048909
  0
VERTEX
  8
0
  6
CONTINUOUS
 10
282.440000
 20
30.626000
 42
0.048909
  0
VERTEX
  8
0
  6
CONTINUOUS
 10
282.466749
 20
30.628677
 42
0.046064
  0
VERTEX
  8
0
  6
CONTINUOUS
 10
282.492540
 20
30.636324
 42
0.044251
  0
VERTEX
  8
0
  6
CONTINUOUS
 10
282.518250
 20
30.649434
 42
0.038364
  0
VERTEX
  8
0
  6
CONTINUOUS
 10
282.541500
 20
30.666594
 42
0.036302
  0
VERTEX
  8
0
  6
CONTINUOUS
 10
282.564127
 20
30.689248
 42
0.030958
  0
VERTEX
  8
0
  6
CONTINUOUS
 10
282.583543
 20
30.714747
 42
0.029447
  0
VERTEX
  8
0
  6
CONTINUOUS
 10
282.601400
 20
30.745225
 42
0.025827
  0
VERTEX
  8
0
  6
CONTINUOUS
 10
282.615803
 20
30.777500
 42
0.024918
  0
VERTEX
  8
0
  6
CONTINUOUS
 10
282.627688
 20
30.813550
 42
0.022928
  0
VERTEX
  8
0
  6
CONTINUOUS
 10
282.636083
 20
30.850578
 42
0.022510
  0
VERTEX
  8
0
  6
CONTINUOUS
 10
282.641280
 20
30.889634
 42
0.021882
  0
VERTEX
  8
0
  6
CONTINUOUS
 10
282.643000
 20
30.929000
  0
SEQEND
  8
0
  0
POLYLINE
  8
0
  6
CONTINUOUS
 66
     1
 70
     0
  0
VERTEX
  8
0
  6
CONTINUOUS
 10
282.234000
 20
30.929000
 42
0.021988
  0
VERTEX
  8
0
  6
CONTINUOUS
 10
282.235745
 20
30.889243
 42
0.022614
  0
VERTEX
  8
0
  6
CONTINUOUS
 10
282.241019
 20
30.849801
 42
0.023030
  0
VERTEX
  8
0
  6
CONTINUOUS
 10
282.249540
 20
30.812402
 42
0.025011
  0
VERTEX
  8
0
  6
CONTINUOUS
 10
282.261599
 20
30.776000
 42
0.025916
  0
VERTEX
  8
0
  6
CONTINUOUS
 10
282.276218
 20
30.743398
 42
0.029509
  0
VERTEX
  8
0
  6
CONTINUOUS
 10
282.294336
 20
30.712625
 42
0.031007
  0
VERTEX
  8
0
  6
CONTINUOUS
 10
282.314046
 20
30.686867
 42
0.036290
  0
VERTEX
  8
0
  6
CONTINUOUS
 10
282.337000
 20
30.663996
 42
0.038323
  0
VERTEX
  8
0
  6
CONTINUOUS
 10
282.360602
 20
30.646661
 42
0.044112
  0
VERTEX
  8
0
  6
CONTINUOUS
 10
282.386683
 20
30.633427
 42
0.045888
  0
VERTEX
  8
0
  6
CONTINUOUS
 10
282.412860
 20
30.625702
 42
0.048673
  0
VERTEX
  8
0
  6
CONTINUOUS
 10
282.440000
 20
30.623000
 42
0.048673
  0
VERTEX
  8
0
  6
CONTINUOUS
 10
282.467140
 20
30.625702
 42
0.045888
  0
VERTEX
  8
0
  6
CONTINUOUS
 10
282.493317
 20
30.633427
 42
0.044112
  0
VERTEX
  8
0
  6
CONTINUOUS
 10
282.519398
 20
30.646661
 42
0.038323
  0
VERTEX
  8
0
  6
CONTINUOUS
 10
282.543000
 20
30.663996
 42
0.036290
  0
VERTEX
  8
0
  6
CONTINUOUS
 10
282.565954
 20
30.686867
 42
0.031007
  0
VERTEX
  8
0
  6
CONTINUOUS
 10
282.585664
 20
30.712625
 42
0.029509
  0
VERTEX
  8
0
  6
CONTINUOUS
 10
282.603782
 20
30.743398
 42
0.025916
  0
VERTEX
  8
0
  6
CONTINUOUS
 10
282.618401
 20
30.776000
 42
0.025011
  0
VERTEX
  8
0
  6
CONTINUOUS
 10
282.630460
 20
30.812402
 42
0.023030
  0
VERTEX
  8
0
  6
CONTINUOUS
 10
282.638981
 20
30.849801
 42
0.022614
  0
VERTEX
  8
0
  6
CONTINUOUS
 10
282.644255
 20
30.889243
 42
0.021988
  0
VERTEX
  8
0
  6
CONTINUOUS
 10
282.646000
 20
30.929000
  0
SEQEND
  8
0
  0
ENDSEC
  0
EOF
