  0
SECTION
  2
HEADER
  9
$ACADVER
  1
AC1009
  9
$INSBASE
 10
0.0
 20
0.0
 30
0.0
  9
$EXTMIN
 10
281.396000
 20
29.897000
 30
-2147483.648000
  9
$EXTMAX
 10
291.896000
 20
44.747000
 30
0.000000
  9
$LIMMIN
 10
280.396000
 20
28.897000
  9
$LIMMAX
 10
292.896000
 20
43.747000
  9
$ORTHOMODE
 70
     0
  9
$REGENMODE
 70
     1
  9
$FILLMODE
 70
     1
  9
$QTEXTMODE
 70
     0
  9
$MIRRTEXT
 70
     1
  9
$DRAGMODE
 70
     2
  9
$LTSCALE
 40
1.0
  9
$OSMODE
 70
     0
  9
$ATTMODE
 70
     1
  9
$TEXTSIZE
 40
0.2
  9
$TRACEWID
 40
0.05
  9
$TEXTSTYLE
  7
STANDARD
  9
$CLAYER
  8
0
  9
$CELTYPE
  6
BYLAYER
  9
$CECOLOR
 62
   256
  9
$DIMSCALE
 40
1.0
  9
$DIMASZ
 40
0.18
  9
$DIMEXO
 40
0.0625
  9
$DIMDLI
 40
0.38
  9
$DIMRND
 40
0.0
  9
$DIMDLE
 40
0.0
  9
$DIMEXE
 40
0.18
  9
$DIMTP
 40
0.0
  9
$DIMTM
 40
0.0
  9
$DIMTXT
 40
0.18
  9
$DIMCEN
 40
0.09
  9
$DIMTSZ
 40
0.0
  9
$DIMTOL
 70
     0
  9
$DIMLIM
 70
     0
  9
$DIMTIH
 70
     1
  9
$DIMTOH
 70
     1
  9
$DIMSE1
 70
     0
  9
$DIMSE2
 70
     0
  9
$DIMTAD
 70
     0
  9
$DIMZIN
 70
     0
  9
$DIMBLK
  1

  9
$DIMASO
 70
     1
  9
$DIMSHO
 70
     1
  9
$DIMPOST
  1

  9
$DIMAPOST
  1

  9
$DIMALT
 70
     0
  9
$DIMALTD
 70
     2
  9
$DIMALTF
 40
25.4
  9
$DIMLFAC
 40
1.0
  9
$DIMTOFL
 70
     0
  9
$DIMTVP
 40
0.0
  9
$DIMTIX
 70
     0
  9
$DIMSOXD
 70
     0
  9
$DIMSAH
 70
     0
  9
$DIMBLK1
  1

  9
$DIMBLK2
  1

  9
$DIMSTYLE
  2
*UNNAMED
  9
$DIMCLRD
 70
     0
  9
$DIMCLRE
 70
     0
  9
$DIMCLRT
 70
     0
  9
$DIMTFAC
 40
1.0
  9
$DIMGAP
 40
0.09
  9
$LUNITS
 70
     2
  9
$LUPREC
 70
     4
  9
$AXISMODE
 70
     0
  9
$AXISUNIT
 10
0.0
 20
0.0
  9
$SKETCHINC
 40
0.1
  9
$FILLETRAD
 40
0.0
  9
$AUNITS
 70
     0
  9
$AUPREC
 70
     0
  9
$MENU
  1
acad
  9
$ELEVATION
 40
0.0
  9
$PELEVATION
 40
0.0
  9
$THICKNESS
 40
0.0
  9
$LIMCHECK
 70
     0
  9
$BLIPMODE
 70
     1
  9
$CHAMFERA
 40
0.0
  9
$CHAMFERB
 40
0.0
  9
$SKPOLY
 70
     0
  9
$TDCREATE
 40
2448315.373408102
  9
$TDUPDATE
 40
2448315.373408102
  9
$TDINDWG
 40
0.0000000000
  9
$TDUSRTIMER
 40
0.0000000000
  9
$USRTIMER
 70
     1
  9
$ANGBASE
 50
0.0
  9
$ANGDIR
 70
     0
  9
$PDMODE
 70
     0
  9
$PDSIZE
 40
0.0
  9
$PLINEWID
 40
0.0
  9
$COORDS
 70
     0
  9
$SPLFRAME
 70
     0
  9
$SPLINETYPE
 70
     6
  9
$SPLINESEGS
 70
     8
  9
$ATTDIA
 70
     0
  9
$ATTREQ
 70
     1
  9
$HANDLING
 70
     0
  9
$HANDSEED
  5
0
  9
$SURFTAB1
 70
     6
  9
$SURFTAB2
 70
     6
  9
$SURFTYPE
 70
     6
  9
$SURFU
 70
     6
  9
$SURFV
 70
     6
  9
$UCSNAME
  2

  9
$UCSORG
 10
0.0
 20
0.0
 30
0.0
  9
$UCSXDIR
 10
1.0
 20
0.0
 30
0.0
  9
$UCSYDIR
 10
0.0
 20
1.0
 30
0.0
  9
$PUCSNAME
  2

  9
$PUCSORG
 10
0.0
 20
0.0
 30
0.0
  9
$PUCSXDIR
 10
1.0
 20
0.0
 30
0.0
  9
$PUCSYDIR
 10
0.0
 20
1.0
 30
0.0
  9
$USERI1
 70
     0
  9
$USERI2
 70
     0
  9
$USERI3
 70
     0
  9
$USERI4
 70
     0
  9
$USERI5
 70
     0
  9
$USERR1
 40
0.0
  9
$USERR2
 40
0.0
  9
$USERR3
 40
0.0
  9
$USERR4
 40
0.0
  9
$USERR5
 40
0.0
  9
$WORLDVIEW
 70
     1
  9
$SHADEDGE
 70
     3
  9
$SHADEDIF
 70
    70
  9
$TILEMODE
 70
     1
  9
$MAXACTVP
 70
    16
  9
$PINSBASE
 10
0.0
 20
0.0
 30
0.0
  9
$PLIMCHECK
 70
     0
  9
$PEXTMIN
 10
1.000000E+20
 20
1.000000E+20
 30
1.000000E+20
  9
$PEXTMAX
 10
-1.000000E+20
 20
-1.000000E+20
 30
-1.000000E+20
  9
$PLIMMIN
 10
0.0
 20
0.0
  9
$PLIMMAX
 10
12.0
 20
9.0
  9
$UNITMODE
 70
     0
  9
$VISRETAIN
 70
     0
  0
ENDSEC
  0
SECTION
  2
TABLES
  0
TABLE
  2
LTYPE
 70
    1
  0
LTYPE
  2
CONTINUOUS
 70
    64
3
Solid line
 72
    65
 73
0
 40
0.000000
  0
ENDTAB
  0
TABLE
  2
LAYER
 70
    8
  0
LAYER
  2
0
 70
    64
 62
7
  6
CONTINUOUS
  0
LAYER
  2
1
 70
    64
 62
7
  6
CONTINUOUS
  0
LAYER
  2
7
 70
    64
 62
7
  6
CONTINUOUS
  0
LAYER
  2
8
 70
    64
 62
7
  6
CONTINUOUS
  0
LAYER
  2
9
 70
    64
 62
7
  6
CONTINUOUS
  0
LAYER
  2
22
 70
    64
 62
7
  6
CONTINUOUS
  0
LAYER
  2
25
 70
    64
 62
7
  6
CONTINUOUS
  0
LAYER
  2
0
 70
    64
 62
7
  6
CONTINUOUS
  0
ENDTAB
  0
TABLE
  2
STYLE
 70
    1
  0
STYLE
  2
ROMANC
70
     0
 40
0.0
 41
1.0
 50
0.0
 71
     0
 42
0.2
  3
ROMANC
  4

  0
ENDTAB
  0
ENDSEC
  0
SECTION
  2
BLOCKS
  0
ENDSEC
  0
SECTION
  2
ENTITIES
  0
TEXT
  8
0
  6
CONTINUOUS
 40
0.100000
 10
286.909000
 20
41.324000
  1
2
  7
ROMANC
  0
TEXT
  8
0
  6
CONTINUOUS
 40
0.300000
 10
283.926000
 20
41.768000
  1
ESCALA  1:50
  7
ROMANC
  0
POLYLINE
  8
0
  6
CONTINUOUS
 66
     1
 70
     1
  0
VERTEX
  8
0
  6
CONTINUOUS
 10
281.396000
 20
44.747000
  0
VERTEX
  8
0
  6
CONTINUOUS
 10
291.896000
 20
44.747000
  0
VERTEX
  8
0
  6
CONTINUOUS
 10
291.896000
 20
29.897000
  0
VERTEX
  8
0
  6
CONTINUOUS
 10
281.396000
 20
29.897000
  0
SEQEND
  8
0
  0
TEXT
  8
0
  6
CONTINUOUS
 40
0.300000
 10
283.926000
 20
42.381000
  1
TIPUS   T161
  7
ROMANC
  0
TEXT
  8
0
  6
CONTINUOUS
 40
0.300000
 10
283.945000
 20
41.099000
  1
S = 160 dm
  7
ROMANC
  0
TEXT
  8
0
  6
CONTINUOUS
 40
0.300000
 10
283.922000
 20
40.529000
  1
P = 51 dm
  7
ROMANC
  0
LINE
  8
1
  6
CONTINUOUS
 10
286.155000
 20
33.513000
 11
286.555000
 21
33.513000
  0
TEXT
  8
1
  6
CONTINUOUS
 40
0.075000
 10
286.233000
 20
33.206000
  1
0.40
  7
ROMANC
  0
LINE
  8
1
  6
CONTINUOUS
 10
286.005000
 20
33.243000
 11
286.155000
 21
33.243000
  0
LINE
  8
1
  6
CONTINUOUS
 10
286.705000
 20
33.243000
 11
286.555000
 21
33.243000
  0
LINE
  8
1
  6
CONTINUOUS
 10
286.192000
 20
33.262000
 11
286.118000
 21
33.224000
  0
LINE
  8
1
  6
CONTINUOUS
 10
286.518000
 20
33.224000
 11
286.592000
 21
33.262000
  0
LINE
  8
1
  6
CONTINUOUS
 10
286.155000
 20
33.475000
 11
286.155000
 21
33.205000
  0
LINE
  8
1
  6
CONTINUOUS
 10
286.555000
 20
33.475000
 11
286.555000
 21
33.205000
  0
ARC
  8
1
  6
CONTINUOUS
 10
286.805000
 20
33.569250
 40
0.256250
 50
192.680383
 51
347.319617
  0
TEXT
  8
1
  6
CONTINUOUS
 40
0.075000
 10
286.686000
 20
33.040000
  1
0.50
  7
ROMANC
  0
LINE
  8
1
  6
CONTINUOUS
 10
286.405000
 20
33.078000
 11
286.555000
 21
33.078000
  0
LINE
  8
1
  6
CONTINUOUS
 10
287.205000
 20
33.078000
 11
287.055000
 21
33.078000
  0
LINE
  8
1
  6
CONTINUOUS
 10
286.592000
 20
33.097000
 11
286.518000
 21
33.059000
  0
LINE
  8
1
  6
CONTINUOUS
 10
287.018000
 20
33.059000
 11
287.092000
 21
33.097000
  0
LINE
  8
1
  6
CONTINUOUS
 10
286.555000
 20
33.475000
 11
286.555000
 21
33.040000
  0
LINE
  8
1
  6
CONTINUOUS
 10
287.055000
 20
33.475000
 11
287.055000
 21
33.040000
  0
TEXT
  8
1
  6
CONTINUOUS
 40
0.075000
 10
286.486000
 20
32.850000
  1
0.90
  7
ROMANC
  0
LINE
  8
1
  6
CONTINUOUS
 10
286.448000
 20
32.887000
 11
286.155000
 21
32.887000
  0
LINE
  8
1
  6
CONTINUOUS
 10
286.760000
 20
32.887000
 11
287.055000
 21
32.887000
  0
LINE
  8
1
  6
CONTINUOUS
 10
286.118000
 20
32.868000
 11
286.192000
 21
32.906000
  0
LINE
  8
1
  6
CONTINUOUS
 10
287.092000
 20
32.906000
 11
287.018000
 21
32.868000
  0
LINE
  8
1
  6
CONTINUOUS
 10
286.155000
 20
33.475000
 11
286.155000
 21
32.849000
  0
LINE
  8
1
  6
CONTINUOUS
 10
287.055000
 20
33.475000
 11
287.055000
 21
32.849000
  0
LINE
  8
1
  6
CONTINUOUS
 10
287.055000
 20
33.513000
 11
287.105000
 21
34.713000
  0
TEXT
  8
1
  6
CONTINUOUS
 40
0.075000
 10
287.492000
 20
34.153000
  1
1.90
 50
90.000000
  7
ROMANC
  0
LINE
  8
1
  6
CONTINUOUS
 10
287.455000
 20
34.115000
 11
287.455000
 21
33.313000
  0
LINE
  8
1
  6
CONTINUOUS
 10
287.455000
 20
34.410000
 11
287.455000
 21
35.213000
  0
LINE
  8
1
  6
CONTINUOUS
 10
287.474000
 20
33.276000
 11
287.436000
 21
33.350000
  0
LINE
  8
1
  6
CONTINUOUS
 10
287.436000
 20
35.250000
 11
287.474000
 21
35.176000
  0
LINE
  8
1
  6
CONTINUOUS
 10
286.843000
 20
33.313000
 11
287.493000
 21
33.313000
  0
LINE
  8
1
  6
CONTINUOUS
 10
286.643000
 20
35.213000
 11
287.493000
 21
35.213000
  0
ARC
  8
1
  6
CONTINUOUS
 10
286.605000
 20
34.713000
 40
0.500000
 50
360.000000
 51
540.000000
  0
TEXT
  8
1
  6
CONTINUOUS
 40
0.075000
 10
287.330000
 20
34.003000
  1
1.20
 50
90.000000
  7
ROMANC
  0
LINE
  8
1
  6
CONTINUOUS
 10
287.293000
 20
33.965000
 11
287.293000
 21
33.513000
  0
LINE
  8
1
  6
CONTINUOUS
 10
287.293000
 20
34.260000
 11
287.293000
 21
34.713000
  0
LINE
  8
1
  6
CONTINUOUS
 10
287.312000
 20
33.476000
 11
287.274000
 21
33.550000
  0
LINE
  8
1
  6
CONTINUOUS
 10
287.274000
 20
34.750000
 11
287.312000
 21
34.676000
  0
LINE
  8
1
  6
CONTINUOUS
 10
287.093000
 20
33.513000
 11
287.331000
 21
33.513000
  0
LINE
  8
1
  6
CONTINUOUS
 10
287.143000
 20
34.713000
 11
287.331000
 21
34.713000
  0
TEXT
  8
1
  6
CONTINUOUS
 40
0.075000
 10
287.330000
 20
34.844000
  1
0.50
 50
90.000000
  7
ROMANC
  0
LINE
  8
1
  6
CONTINUOUS
 10
287.293000
 20
34.563000
 11
287.293000
 21
34.713000
  0
LINE
  8
1
  6
CONTINUOUS
 10
287.293000
 20
35.363000
 11
287.293000
 21
35.213000
  0
LINE
  8
1
  6
CONTINUOUS
 10
287.274000
 20
34.750000
 11
287.312000
 21
34.676000
  0
LINE
  8
1
  6
CONTINUOUS
 10
287.312000
 20
35.176000
 11
287.274000
 21
35.250000
  0
LINE
  8
1
  6
CONTINUOUS
 10
286.643000
 20
35.213000
 11
287.331000
 21
35.213000
  0
TEXT
  8
1
  6
CONTINUOUS
 40
0.075000
 10
287.218000
 20
33.665000
  1
0.20
 50
90.000000
  7
ROMANC
  0
LINE
  8
1
  6
CONTINUOUS
 10
287.180000
 20
33.162000
 11
287.180000
 21
33.312000
  0
LINE
  8
1
  6
CONTINUOUS
 10
287.180000
 20
33.627000
 11
287.180000
 21
33.513000
  0
LINE
  8
1
  6
CONTINUOUS
 10
287.161000
 20
33.350000
 11
287.199000
 21
33.274000
  0
LINE
  8
1
  6
CONTINUOUS
 10
287.199000
 20
33.476000
 11
287.161000
 21
33.550000
  0
LINE
  8
1
  6
CONTINUOUS
 10
286.834000
 20
33.312000
 11
287.218000
 21
33.312000
  0
LINE
  8
1
  6
CONTINUOUS
 10
287.093000
 20
33.513000
 11
287.218000
 21
33.513000
  0
LINE
  8
1
  6
CONTINUOUS
 10
286.095000
 20
34.712000
 11
286.145000
 21
33.503000
  0
LINE
  8
1
  6
CONTINUOUS
 10
286.085000
 20
34.712000
 11
286.136000
 21
33.493000
  0
LINE
  8
1
  6
CONTINUOUS
 10
286.145000
 20
33.503000
 11
286.547000
 21
33.503000
  0
LINE
  8
1
  6
CONTINUOUS
 10
286.136000
 20
33.493000
 11
286.539000
 21
33.493000
  0
ARC
  8
1
  6
CONTINUOUS
 10
286.805000
 20
33.569250
 40
0.266250
 50
194.408069
 51
347.319617
  0
ARC
  8
1
  6
CONTINUOUS
 10
286.805000
 20
33.569250
 40
0.276250
 50
196.022694
 51
346.587603
  0
LINE
  8
1
  6
CONTINUOUS
 10
287.064000
 20
33.512000
 11
287.114000
 21
34.712000
  0
LINE
  8
1
  6
CONTINUOUS
 10
287.074000
 20
33.505000
 11
287.124000
 21
34.712000
  0
ARC
  8
1
  6
CONTINUOUS
 10
286.605000
 20
34.713000
 40
0.510000
 50
360.000000
 51
540.000000
  0
ARC
  8
1
  6
CONTINUOUS
 10
286.605000
 20
34.713000
 40
0.520000
 50
360.000000
 51
540.000000
  0
LINE
  8
1
  6
CONTINUOUS
 10
286.105000
 20
34.713000
 11
286.155000
 21
33.513000
  0
TEXT
  8
1
  6
CONTINUOUS
 40
0.075000
 10
286.495000
 20
35.334000
  1
1.00
  7
ROMANC
  0
LINE
  8
1
  6
CONTINUOUS
 10
286.457000
 20
35.372000
 11
286.105000
 21
35.372000
  0
LINE
  8
1
  6
CONTINUOUS
 10
286.752000
 20
35.372000
 11
287.105000
 21
35.372000
  0
LINE
  8
1
  6
CONTINUOUS
 10
286.068000
 20
35.353000
 11
286.142000
 21
35.391000
  0
LINE
  8
1
  6
CONTINUOUS
 10
287.142000
 20
35.391000
 11
287.068000
 21
35.353000
  0
LINE
  8
1
  6
CONTINUOUS
 10
286.105000
 20
34.751000
 11
286.105000
 21
35.410000
  0
LINE
  8
1
  6
CONTINUOUS
 10
287.105000
 20
34.751000
 11
287.105000
 21
35.410000
  0
ENDSEC
  0
EOF
