  0
SECTION
  2
HEADER
  9
$ACADVER
  1
AC1009
  9
$INSBASE
 10
189.55699
 20
-4.229234
 30
0.0
  9
$EXTMIN
 10
281.396
 20
29.897
 30
0.0
  9
$EXTMAX
 10
291.896
 20
44.747
 30
0.0
  9
$LIMMIN
 10
0.0
 20
0.0
  9
$LIMMAX
 10
410.0
 20
287.0
  9
$ORTHOMODE
 70
     1
  9
$REGENMODE
 70
     1
  9
$FILLMODE
 70
     1
  9
$QTEXTMODE
 70
     0
  9
$MIRRTEXT
 70
     1
  9
$DRAGMODE
 70
     2
  9
$LTSCALE
 40
25.0
  9
$OSMODE
 70
    32
  9
$ATTMODE
 70
     1
  9
$TEXTSIZE
 40
0.1
  9
$TRACEWID
 40
1.0
  9
$TEXTSTYLE
  7
ROMANC
  9
$CLAYER
  8
0
  9
$CELTYPE
  6
BYLAYER
  9
$CECOLOR
 62
   256
  9
$DIMSCALE
 40
0.0
  9
$DIMASZ
 40
0.0
  9
$DIMEXO
 40
0.1
  9
$DIMDLI
 40
7.0
  9
$DIMRND
 40
0.0
  9
$DIMDLE
 40
0.0
  9
$DIMEXE
 40
1.8
  9
$DIMTP
 40
0.0
  9
$DIMTM
 40
0.0
  9
$DIMTXT
 40
0.03
  9
$DIMCEN
 40
1.5
  9
$DIMTSZ
 40
1.0
  9
$DIMTOL
 70
     0
  9
$DIMLIM
 70
     0
  9
$DIMTIH
 70
     0
  9
$DIMTOH
 70
     0
  9
$DIMSE1
 70
     0
  9
$DIMSE2
 70
     0
  9
$DIMTAD
 70
     0
  9
$DIMZIN
 70
     0
  9
$DIMBLK
  1

  9
$DIMASO
 70
     1
  9
$DIMSHO
 70
     0
  9
$DIMPOST
  1

  9
$DIMAPOST
  1

  9
$DIMALT
 70
     0
  9
$DIMALTD
 70
     2
  9
$DIMALTF
 40
25.4
  9
$DIMLFAC
 40
1.0
  9
$DIMTOFL
 70
     1
  9
$DIMTVP
 40
0.0
  9
$DIMTIX
 70
     1
  9
$DIMSOXD
 70
     0
  9
$DIMSAH
 70
     0
  9
$DIMBLK1
  1

  9
$DIMBLK2
  1

  9
$DIMSTYLE
  2
*UNNAMED
  9
$DIMCLRD
 70
     0
  9
$DIMCLRE
 70
     0
  9
$DIMCLRT
 70
     0
  9
$DIMTFAC
 40
116.666667
  9
$DIMGAP
 40
0.09
  9
$LUNITS
 70
     2
  9
$LUPREC
 70
     2
  9
$SKETCHINC
 40
1.0
  9
$FILLETRAD
 40
0.0
  9
$AUNITS
 70
     0
  9
$AUPREC
 70
     0
  9
$MENU
  1
acad
  9
$ELEVATION
 40
0.0
  9
$PELEVATION
 40
0.0
  9
$THICKNESS
 40
0.0
  9
$LIMCHECK
 70
     0
  9
$BLIPMODE
 70
     0
  9
$CHAMFERA
 40
0.0
  9
$CHAMFERB
 40
0.0
  9
$SKPOLY
 70
     0
  9
$TDCREATE
 40
2449967.712784722
  9
$TDUPDATE
 40
2450828.509675462
  9
$TDINDWG
 40
0.0097111111
  9
$TDUSRTIMER
 40
0.0097111111
  9
$USRTIMER
 70
     1
  9
$ANGBASE
 50
0.0
  9
$ANGDIR
 70
     0
  9
$PDMODE
 70
     0
  9
$PDSIZE
 40
0.0
  9
$PLINEWID
 40
0.0
  9
$COORDS
 70
     0
  9
$SPLFRAME
 70
     0
  9
$SPLINETYPE
 70
     6
  9
$SPLINESEGS
 70
     8
  9
$ATTDIA
 70
     0
  9
$ATTREQ
 70
     1
  9
$HANDLING
 70
     0
  9
$HANDSEED
  5
0
  9
$SURFTAB1
 70
     6
  9
$SURFTAB2
 70
     6
  9
$SURFTYPE
 70
     6
  9
$SURFU
 70
     6
  9
$SURFV
 70
     6
  9
$UCSNAME
  2

  9
$UCSORG
 10
0.0
 20
0.0
 30
0.0
  9
$UCSXDIR
 10
1.0
 20
0.0
 30
0.0
  9
$UCSYDIR
 10
0.0
 20
1.0
 30
0.0
  9
$PUCSNAME
  2

  9
$PUCSORG
 10
0.0
 20
0.0
 30
0.0
  9
$PUCSXDIR
 10
1.0
 20
0.0
 30
0.0
  9
$PUCSYDIR
 10
0.0
 20
1.0
 30
0.0
  9
$USERI1
 70
     0
  9
$USERI2
 70
     0
  9
$USERI3
 70
     0
  9
$USERI4
 70
     0
  9
$USERI5
 70
     0
  9
$USERR1
 40
0.0
  9
$USERR2
 40
0.0
  9
$USERR3
 40
0.0
  9
$USERR4
 40
0.0
  9
$USERR5
 40
0.0
  9
$WORLDVIEW
 70
     1
  9
$SHADEDGE
 70
     3
  9
$SHADEDIF
 70
    70
  9
$TILEMODE
 70
     1
  9
$MAXACTVP
 70
    16
  9
$PINSBASE
 10
0.0
 20
0.0
 30
0.0
  9
$PLIMCHECK
 70
     0
  9
$PEXTMIN
 10
1.000000E+20
 20
1.000000E+20
 30
1.000000E+20
  9
$PEXTMAX
 10
-1.000000E+20
 20
-1.000000E+20
 30
-1.000000E+20
  9
$PLIMMIN
 10
0.0
 20
0.0
  9
$PLIMMAX
 10
12.0
 20
9.0
  9
$UNITMODE
 70
     0
  9
$VISRETAIN
 70
     0
  9
$PLINEGEN
 70
     0
  9
$PSLTSCALE
 70
     0
  9
$TREEDEPTH
 70
  3020
  9
$DWGCODEPAGE
  3
iso8859-1
  0
ENDSEC
  0
SECTION
  2
TABLES
  0
TABLE
  2
VPORT
 70
     3
  0
VPORT
  2
*ACTIVE
 70
     0
 10
0.0
 20
0.0
 11
1.0
 21
1.0
 12
293.35785
 22
37.322
 13
0.0
 23
0.0
 14
1.0
 24
1.0
 15
10.0
 25
10.0
 16
0.0
 26
0.0
 36
1.0
 17
0.0
 27
0.0
 37
0.0
 40
14.85
 41
1.611024
 42
50.0
 43
0.0
 44
0.0
 50
0.0
 51
0.0
 71
     0
 72
   100
 73
     1
 74
     0
 75
     0
 76
     0
 77
     0
 78
     1
  0
ENDTAB
  0
TABLE
  2
LTYPE
 70
     1
  0
LTYPE
  2
CONTINUOUS
 70
    64
  3
Solid line
 72
    65
 73
     0
 40
0.0
  0
ENDTAB
  0
TABLE
  2
LAYER
 70
     3
  0
LAYER
  2
0
 70
    64
 62
     7
  6
CONTINUOUS
  0
LAYER
  2
1
 70
    64
 62
     7
  6
CONTINUOUS
  0
LAYER
  2
DEFPOINTS
 70
    64
 62
     7
  6
CONTINUOUS
  0
ENDTAB
  0
TABLE
  2
STYLE
 70
     2
  0
STYLE
  2
STANDARD
 70
     0
 40
0.0
 41
1.0
 50
0.0
 71
     0
 42
0.1
  3
txt
  4

  0
STYLE
  2
ROMANC
 70
    64
 40
0.0
 41
1.0
 50
0.0
 71
     0
 42
0.1
  3
romanc
  4

  0
ENDTAB
  0
TABLE
  2
VIEW
 70
     0
  0
ENDTAB
  0
TABLE
  2
UCS
 70
     0
  0
ENDTAB
  0
TABLE
  2
APPID
 70
     1
  0
APPID
  2
ACAD
 70
    64
  0
ENDTAB
  0
TABLE
  2
DIMSTYLE
 70
     0
  0
ENDTAB
  0
ENDSEC
  0
SECTION
  2
BLOCKS
  0
BLOCK
  8
0
  2
*D0
 70
    65
 10
0.0
 20
0.0
 30
0.0
  3
*D
  0
LINE
  8
0
  6
BYBLOCK
 62
     0
 10
286.669
 20
33.138
 30
0.0
 11
286.669
 21
35.09247
 31
0.0
  0
LINE
  8
0
  6
BYBLOCK
 62
     0
 10
287.165391
 20
33.146755
 30
0.0
 11
287.165391
 21
35.09247
 31
0.0
  0
LINE
  8
0
  6
BYBLOCK
 62
     0
 10
286.669
 20
33.29247
 30
0.0
 11
284.669
 21
33.29247
 31
0.0
  0
LINE
  8
0
  6
BYBLOCK
 62
     0
 10
287.165391
 20
33.29247
 30
0.0
 11
289.165391
 21
33.29247
 31
0.0
  0
LINE
  8
0
  6
BYBLOCK
 62
     0
 10
285.669
 20
32.29247
 30
0.0
 11
287.669
 21
34.29247
 31
0.0
  0
LINE
  8
0
  6
BYBLOCK
 62
     0
 10
286.165391
 20
32.29247
 30
0.0
 11
288.165391
 21
34.29247
 31
0.0
  0
LINE
  8
0
  6
BYBLOCK
 62
     0
 10
286.669
 20
33.29247
 30
0.0
 11
287.165391
 21
33.29247
 31
0.0
  0
TEXT
  8
0
  6
BYBLOCK
 62
     0
 10
286.867195
 20
33.27747
 30
0.0
 40
0.03
  1
0.50
  7
ROMANC
 72
     1
 11
286.917195
 21
33.29247
 31
0.0
 73
     2
  0
POINT
  8
DEFPOINTS
  6
BYBLOCK
 62
     0
 10
286.669
 20
33.038
 30
0.0
  0
POINT
  8
DEFPOINTS
  6
BYBLOCK
 62
     0
 10
287.165391
 20
33.046755
 30
0.0
  0
POINT
  8
DEFPOINTS
  6
BYBLOCK
 62
     0
 10
287.165391
 20
33.29247
 30
0.0
  0
ENDBLK
  8
0
  0
ENDSEC
  0
SECTION
  2
ENTITIES
  0
TEXT
  8
0
  6
CONTINUOUS
 10
286.909
 20
41.324
 30
0.0
 40
0.1
  1
2
  7
ROMANC
  0
TEXT
  8
0
  6
CONTINUOUS
 10
283.926
 20
41.768
 30
0.0
 40
0.3
  1
ESCALA  1:50
  7
ROMANC
  0
TEXT
  8
0
  6
CONTINUOUS
 10
283.926
 20
42.381
 30
0.0
 40
0.3
  1
TIPUS   T156
  7
ROMANC
  0
LINE
  8
1
  6
CONTINUOUS
 10
286.171
 20
34.948
 30
0.0
 11
286.321
 21
33.848
 31
0.0
  0
TEXT
  8
0
  6
CONTINUOUS
 10
283.945
 20
41.099
 30
0.0
 40
0.3
  1
S = 156 dm
  7
ROMANC
  0
TEXT
  8
0
  6
CONTINUOUS
 10
283.922
 20
40.529
 30
0.0
 40
0.3
  1
P = 49 dm
  7
ROMANC
  0
LINE
  8
1
  6
CONTINUOUS
 10
286.321
 20
33.848
 30
0.0
 11
286.521
 21
33.848
 31
0.0
  0
TEXT
  8
1
  6
CONTINUOUS
 10
285.897
 20
33.542
 30
0.0
 40
0.075
  1
0.20
  7
ROMANC
  0
LINE
  8
1
  6
CONTINUOUS
 10
286.247
 20
33.579
 30
0.0
 11
286.321
 21
33.579
 31
0.0
  0
LINE
  8
1
  6
CONTINUOUS
 10
286.671
 20
33.579
 30
0.0
 11
286.521
 21
33.579
 31
0.0
  0
LINE
  8
1
  6
CONTINUOUS
 10
286.358
 20
33.598
 30
0.0
 11
286.284
 21
33.56
 31
0.0
  0
LINE
  8
1
  6
CONTINUOUS
 10
286.484
 20
33.56
 30
0.0
 11
286.558
 21
33.598
 31
0.0
  0
LINE
  8
1
  6
CONTINUOUS
 10
286.321
 20
33.81
 30
0.0
 11
286.321
 21
33.541
 31
0.0
  0
LINE
  8
1
  6
CONTINUOUS
 10
286.521
 20
33.81
 30
0.0
 11
286.521
 21
33.541
 31
0.0
  0
LINE
  8
1
  6
CONTINUOUS
 10
286.921
 20
33.848
 30
0.0
 11
287.121
 21
33.848
 31
0.0
  0
TEXT
  8
1
  6
CONTINUOUS
 10
287.272
 20
33.536
 30
0.0
 40
0.075
  1
0.20
  7
ROMANC
  0
LINE
  8
1
  6
CONTINUOUS
 10
286.771
 20
33.574
 30
0.0
 11
286.921
 21
33.574
 31
0.0
  0
LINE
  8
1
  6
CONTINUOUS
 10
287.234
 20
33.574
 30
0.0
 11
287.121
 21
33.574
 31
0.0
  0
LINE
  8
1
  6
CONTINUOUS
 10
286.958
 20
33.593
 30
0.0
 11
286.884
 21
33.555
 31
0.0
  0
LINE
  8
1
  6
CONTINUOUS
 10
287.084
 20
33.555
 30
0.0
 11
287.158
 21
33.593
 31
0.0
  0
LINE
  8
1
  6
CONTINUOUS
 10
286.921
 20
33.81
 30
0.0
 11
286.921
 21
33.536
 31
0.0
  0
LINE
  8
1
  6
CONTINUOUS
 10
287.121
 20
33.81
 30
0.0
 11
287.121
 21
33.536
 31
0.0
  0
ARC
  8
1
  6
CONTINUOUS
 10
286.721
 20
33.906333
 30
0.0
 40
0.208333
 50
196.260206
 51
343.739797
  0
TEXT
  8
1
  6
CONTINUOUS
 10
286.599
 20
33.354
 30
0.0
 40
0.075
  1
0.40
  7
ROMANC
  0
LINE
  8
1
  6
CONTINUOUS
 10
286.371
 20
33.392
 30
0.0
 11
286.521
 21
33.392
 31
0.0
  0
LINE
  8
1
  6
CONTINUOUS
 10
287.071
 20
33.392
 30
0.0
 11
286.921
 21
33.392
 31
0.0
  0
LINE
  8
1
  6
CONTINUOUS
 10
286.558
 20
33.411
 30
0.0
 11
286.484
 21
33.373
 31
0.0
  0
LINE
  8
1
  6
CONTINUOUS
 10
286.884
 20
33.373
 30
0.0
 11
286.958
 21
33.411
 31
0.0
  0
LINE
  8
1
  6
CONTINUOUS
 10
286.521
 20
33.81
 30
0.0
 11
286.521
 21
33.354
 31
0.0
  0
LINE
  8
1
  6
CONTINUOUS
 10
286.921
 20
33.81
 30
0.0
 11
286.921
 21
33.354
 31
0.0
  0
LINE
  8
1
  6
CONTINUOUS
 10
287.121
 20
33.848
 30
0.0
 11
287.271
 21
34.948
 31
0.0
  0
TEXT
  8
1
  6
CONTINUOUS
 10
286.602
 20
33.182
 30
0.0
 40
0.075
  1
0.80
  7
ROMANC
  0
LINE
  8
1
  6
CONTINUOUS
 10
286.564
 20
33.219
 30
0.0
 11
286.321
 21
33.219
 31
0.0
  0
LINE
  8
1
  6
CONTINUOUS
 10
286.876
 20
33.219
 30
0.0
 11
287.121
 21
33.219
 31
0.0
  0
LINE
  8
1
  6
CONTINUOUS
 10
286.284
 20
33.2
 30
0.0
 11
286.358
 21
33.238
 31
0.0
  0
LINE
  8
1
  6
CONTINUOUS
 10
287.158
 20
33.238
 30
0.0
 11
287.084
 21
33.2
 31
0.0
  0
LINE
  8
1
  6
CONTINUOUS
 10
286.321
 20
33.81
 30
0.0
 11
286.321
 21
33.181
 31
0.0
  0
LINE
  8
1
  6
CONTINUOUS
 10
287.121
 20
33.81
 30
0.0
 11
287.121
 21
33.181
 31
0.0
  0
TEXT
  8
1
  6
CONTINUOUS
 10
287.348
 20
34.063
 30
0.0
 40
0.075
  1
0.15
 50
90.0
  7
ROMANC
  0
LINE
  8
1
  6
CONTINUOUS
 10
287.311
 20
33.548
 30
0.0
 11
287.311
 21
33.698
 31
0.0
  0
LINE
  8
1
  6
CONTINUOUS
 10
287.311
 20
34.025
 30
0.0
 11
287.311
 21
33.848
 31
0.0
  0
LINE
  8
1
  6
CONTINUOUS
 10
287.292
 20
33.736
 30
0.0
 11
287.33
 21
33.66
 31
0.0
  0
LINE
  8
1
  6
CONTINUOUS
 10
287.33
 20
33.81
 30
0.0
 11
287.292
 21
33.886
 31
0.0
  0
LINE
  8
1
  6
CONTINUOUS
 10
286.759
 20
33.698
 30
0.0
 11
287.349
 21
33.698
 31
0.0
  0
LINE
  8
1
  6
CONTINUOUS
 10
286.959
 20
33.848
 30
0.0
 11
287.349
 21
33.848
 31
0.0
  0
TEXT
  8
1
  6
CONTINUOUS
 10
287.458
 20
34.372
 30
0.0
 40
0.075
  1
1.10
 50
90.0
  7
ROMANC
  0
LINE
  8
1
  6
CONTINUOUS
 10
287.421
 20
34.334
 30
0.0
 11
287.421
 21
33.848
 31
0.0
  0
LINE
  8
1
  6
CONTINUOUS
 10
287.421
 20
34.611
 30
0.0
 11
287.421
 21
34.948
 31
0.0
  0
LINE
  8
1
  6
CONTINUOUS
 10
287.44
 20
33.81
 30
0.0
 11
287.402
 21
33.886
 31
0.0
  0
LINE
  8
1
  6
CONTINUOUS
 10
287.402
 20
34.986
 30
0.0
 11
287.44
 21
34.91
 31
0.0
  0
LINE
  8
1
  6
CONTINUOUS
 10
287.159
 20
33.848
 30
0.0
 11
287.459
 21
33.848
 31
0.0
  0
LINE
  8
1
  6
CONTINUOUS
 10
287.309
 20
34.948
 30
0.0
 11
287.459
 21
34.948
 31
0.0
  0
ARC
  8
1
  6
CONTINUOUS
 10
286.721
 20
34.948
 30
0.0
 40
0.55
 50
0.0
 51
180.0
  0
TEXT
  8
1
  6
CONTINUOUS
 10
287.632
 20
34.488
 30
0.0
 40
0.075
  1
1.80
 50
90.0
  7
ROMANC
  0
LINE
  8
1
  6
CONTINUOUS
 10
287.594
 20
34.45
 30
0.0
 11
287.594
 21
33.698
 31
0.0
  0
LINE
  8
1
  6
CONTINUOUS
 10
287.594
 20
34.745
 30
0.0
 11
287.594
 21
35.498
 31
0.0
  0
LINE
  8
1
  6
CONTINUOUS
 10
287.613
 20
33.66
 30
0.0
 11
287.575
 21
33.736
 31
0.0
  0
LINE
  8
1
  6
CONTINUOUS
 10
287.575
 20
35.536
 30
0.0
 11
287.613
 21
35.46
 31
0.0
  0
LINE
  8
1
  6
CONTINUOUS
 10
286.759
 20
33.698
 30
0.0
 11
287.632
 21
33.698
 31
0.0
  0
LINE
  8
1
  6
CONTINUOUS
 10
286.759
 20
35.498
 30
0.0
 11
287.632
 21
35.498
 31
0.0
  0
LINE
  8
1
  6
CONTINUOUS
 10
287.129
 20
33.838
 30
0.0
 11
287.28
 21
34.946
 31
0.0
  0
LINE
  8
1
  6
CONTINUOUS
 10
287.138
 20
33.828
 30
0.0
 11
287.29
 21
34.945
 31
0.0
  0
ARC
  8
1
  6
CONTINUOUS
 10
286.721
 20
34.948
 30
0.0
 40
0.56
 50
0.0
 51
180.0
  0
ARC
  8
1
  6
CONTINUOUS
 10
286.721
 20
34.948
 30
0.0
 40
0.57
 50
0.0
 51
180.0
  0
LINE
  8
1
  6
CONTINUOUS
 10
286.161
 20
34.946
 30
0.0
 11
286.312
 21
33.838
 31
0.0
  0
LINE
  8
1
  6
CONTINUOUS
 10
286.151
 20
34.945
 30
0.0
 11
286.303
 21
33.828
 31
0.0
  0
LINE
  8
1
  6
CONTINUOUS
 10
286.312
 20
33.838
 30
0.0
 11
286.514
 21
33.838
 31
0.0
  0
LINE
  8
1
  6
CONTINUOUS
 10
286.303
 20
33.828
 30
0.0
 11
286.507
 21
33.828
 31
0.0
  0
ARC
  8
1
  6
CONTINUOUS
 10
286.721
 20
33.906333
 30
0.0
 40
0.218333
 50
198.238736
 51
341.761264
  0
ARC
  8
1
  6
CONTINUOUS
 10
286.721
 20
33.906333
 30
0.0
 40
0.228333
 50
200.063764
 51
339.936236
  0
LINE
  8
1
  6
CONTINUOUS
 10
286.928
 20
33.838
 30
0.0
 11
287.129
 21
33.838
 31
0.0
  0
LINE
  8
1
  6
CONTINUOUS
 10
286.935
 20
33.828
 30
0.0
 11
287.138
 21
33.828
 31
0.0
  0
LINE
  8
0
  6
BYBLOCK
 62
     0
 10
286.161
 20
35.0085
 30
0.0
 11
286.161
 21
35.958959
 31
0.0
  0
LINE
  8
0
  6
BYBLOCK
 62
     0
 10
287.28
 20
35.0085
 30
0.0
 11
287.28
 21
35.958959
 31
0.0
  0
LINE
  8
0
  6
BYBLOCK
 62
     0
 10
286.161
 20
35.928959
 30
0.0
 11
286.485857
 21
35.928959
 31
0.0
  0
LINE
  8
0
  6
BYBLOCK
 62
     0
 10
287.28
 20
35.928959
 30
0.0
 11
286.955143
 21
35.928959
 31
0.0
  0
LINE
  8
0
  6
BYBLOCK
 62
     0
 10
286.131
 20
35.898959
 30
0.0
 11
286.191
 21
35.958959
 31
0.0
  0
LINE
  8
0
  6
BYBLOCK
 62
     0
 10
287.25
 20
35.898959
 30
0.0
 11
287.31
 21
35.958959
 31
0.0
  0
TEXT
  8
0
  6
BYBLOCK
 62
     0
 10
286.554429
 20
35.891459
 30
0.0
 40
0.075
  1
1.120
  7
ROMANC
 72
     1
 11
286.7205
 21
35.928959
 31
0.0
 73
     2
  0
POINT
  8
DEFPOINTS
  6
BYBLOCK
 62
     0
 10
286.161
 20
34.946
 30
0.0
  0
POINT
  8
DEFPOINTS
  6
BYBLOCK
 62
     0
 10
287.28
 20
34.946
 30
0.0
  0
POINT
  8
DEFPOINTS
  6
BYBLOCK
 62
     0
 10
287.28
 20
35.928959
 30
0.0
  0
LINE
  8
0
  6
CONTINUOUS
 10
281.396
 20
44.747
 30
0.0
 11
291.896
 21
44.747
 31
0.0
  0
LINE
  8
0
  6
CONTINUOUS
 10
291.896
 20
44.747
 30
0.0
 11
291.896
 21
29.897
 31
0.0
  0
LINE
  8
0
  6
CONTINUOUS
 10
291.896
 20
29.897
 30
0.0
 11
281.396
 21
29.897
 31
0.0
  0
LINE
  8
0
  6
CONTINUOUS
 10
281.396
 20
29.897
 30
0.0
 11
281.396
 21
44.747
 31
0.0
  0
ENDSEC
  0
EOF
