  0
SECTION
  2
HEADER
  9
$ACADVER
  1
AC1009
  9
$INSBASE
 10
0.0
 20
0.0
 30
0.0
  9
$EXTMIN
 10
281.396000
 20
29.897000
 30
-2147483.648000
  9
$EXTMAX
 10
291.896000
 20
44.747000
 30
0.000000
  9
$LIMMIN
 10
280.396000
 20
28.897000
  9
$LIMMAX
 10
292.896000
 20
43.747000
  9
$ORTHOMODE
 70
     0
  9
$REGENMODE
 70
     1
  9
$FILLMODE
 70
     1
  9
$QTEXTMODE
 70
     0
  9
$MIRRTEXT
 70
     1
  9
$DRAGMODE
 70
     2
  9
$LTSCALE
 40
1.0
  9
$OSMODE
 70
     0
  9
$ATTMODE
 70
     1
  9
$TEXTSIZE
 40
0.2
  9
$TRACEWID
 40
0.05
  9
$TEXTSTYLE
  7
STANDARD
  9
$CLAYER
  8
0
  9
$CELTYPE
  6
BYLAYER
  9
$CECOLOR
 62
   256
  9
$DIMSCALE
 40
1.0
  9
$DIMASZ
 40
0.18
  9
$DIMEXO
 40
0.0625
  9
$DIMDLI
 40
0.38
  9
$DIMRND
 40
0.0
  9
$DIMDLE
 40
0.0
  9
$DIMEXE
 40
0.18
  9
$DIMTP
 40
0.0
  9
$DIMTM
 40
0.0
  9
$DIMTXT
 40
0.18
  9
$DIMCEN
 40
0.09
  9
$DIMTSZ
 40
0.0
  9
$DIMTOL
 70
     0
  9
$DIMLIM
 70
     0
  9
$DIMTIH
 70
     1
  9
$DIMTOH
 70
     1
  9
$DIMSE1
 70
     0
  9
$DIMSE2
 70
     0
  9
$DIMTAD
 70
     0
  9
$DIMZIN
 70
     0
  9
$DIMBLK
  1

  9
$DIMASO
 70
     1
  9
$DIMSHO
 70
     1
  9
$DIMPOST
  1

  9
$DIMAPOST
  1

  9
$DIMALT
 70
     0
  9
$DIMALTD
 70
     2
  9
$DIMALTF
 40
25.4
  9
$DIMLFAC
 40
1.0
  9
$DIMTOFL
 70
     0
  9
$DIMTVP
 40
0.0
  9
$DIMTIX
 70
     0
  9
$DIMSOXD
 70
     0
  9
$DIMSAH
 70
     0
  9
$DIMBLK1
  1

  9
$DIMBLK2
  1

  9
$DIMSTYLE
  2
*UNNAMED
  9
$DIMCLRD
 70
     0
  9
$DIMCLRE
 70
     0
  9
$DIMCLRT
 70
     0
  9
$DIMTFAC
 40
1.0
  9
$DIMGAP
 40
0.09
  9
$LUNITS
 70
     2
  9
$LUPREC
 70
     4
  9
$AXISMODE
 70
     0
  9
$AXISUNIT
 10
0.0
 20
0.0
  9
$SKETCHINC
 40
0.1
  9
$FILLETRAD
 40
0.0
  9
$AUNITS
 70
     0
  9
$AUPREC
 70
     0
  9
$MENU
  1
acad
  9
$ELEVATION
 40
0.0
  9
$PELEVATION
 40
0.0
  9
$THICKNESS
 40
0.0
  9
$LIMCHECK
 70
     0
  9
$BLIPMODE
 70
     1
  9
$CHAMFERA
 40
0.0
  9
$CHAMFERB
 40
0.0
  9
$SKPOLY
 70
     0
  9
$TDCREATE
 40
2448315.373408102
  9
$TDUPDATE
 40
2448315.373408102
  9
$TDINDWG
 40
0.0000000000
  9
$TDUSRTIMER
 40
0.0000000000
  9
$USRTIMER
 70
     1
  9
$ANGBASE
 50
0.0
  9
$ANGDIR
 70
     0
  9
$PDMODE
 70
     0
  9
$PDSIZE
 40
0.0
  9
$PLINEWID
 40
0.0
  9
$COORDS
 70
     0
  9
$SPLFRAME
 70
     0
  9
$SPLINETYPE
 70
     6
  9
$SPLINESEGS
 70
     8
  9
$ATTDIA
 70
     0
  9
$ATTREQ
 70
     1
  9
$HANDLING
 70
     0
  9
$HANDSEED
  5
0
  9
$SURFTAB1
 70
     6
  9
$SURFTAB2
 70
     6
  9
$SURFTYPE
 70
     6
  9
$SURFU
 70
     6
  9
$SURFV
 70
     6
  9
$UCSNAME
  2

  9
$UCSORG
 10
0.0
 20
0.0
 30
0.0
  9
$UCSXDIR
 10
1.0
 20
0.0
 30
0.0
  9
$UCSYDIR
 10
0.0
 20
1.0
 30
0.0
  9
$PUCSNAME
  2

  9
$PUCSORG
 10
0.0
 20
0.0
 30
0.0
  9
$PUCSXDIR
 10
1.0
 20
0.0
 30
0.0
  9
$PUCSYDIR
 10
0.0
 20
1.0
 30
0.0
  9
$USERI1
 70
     0
  9
$USERI2
 70
     0
  9
$USERI3
 70
     0
  9
$USERI4
 70
     0
  9
$USERI5
 70
     0
  9
$USERR1
 40
0.0
  9
$USERR2
 40
0.0
  9
$USERR3
 40
0.0
  9
$USERR4
 40
0.0
  9
$USERR5
 40
0.0
  9
$WORLDVIEW
 70
     1
  9
$SHADEDGE
 70
     3
  9
$SHADEDIF
 70
    70
  9
$TILEMODE
 70
     1
  9
$MAXACTVP
 70
    16
  9
$PINSBASE
 10
0.0
 20
0.0
 30
0.0
  9
$PLIMCHECK
 70
     0
  9
$PEXTMIN
 10
1.000000E+20
 20
1.000000E+20
 30
1.000000E+20
  9
$PEXTMAX
 10
-1.000000E+20
 20
-1.000000E+20
 30
-1.000000E+20
  9
$PLIMMIN
 10
0.0
 20
0.0
  9
$PLIMMAX
 10
12.0
 20
9.0
  9
$UNITMODE
 70
     0
  9
$VISRETAIN
 70
     0
  0
ENDSEC
  0
SECTION
  2
TABLES
  0
TABLE
  2
LTYPE
 70
    1
  0
LTYPE
  2
CONTINUOUS
 70
    64
3
Solid line
 72
    65
 73
0
 40
0.000000
  0
ENDTAB
  0
TABLE
  2
LAYER
 70
    8
  0
LAYER
  2
0
 70
    64
 62
7
  6
CONTINUOUS
  0
LAYER
  2
1
 70
    64
 62
7
  6
CONTINUOUS
  0
LAYER
  2
7
 70
    64
 62
7
  6
CONTINUOUS
  0
LAYER
  2
8
 70
    64
 62
7
  6
CONTINUOUS
  0
LAYER
  2
9
 70
    64
 62
7
  6
CONTINUOUS
  0
LAYER
  2
22
 70
    64
 62
7
  6
CONTINUOUS
  0
LAYER
  2
25
 70
    64
 62
7
  6
CONTINUOUS
  0
LAYER
  2
0
 70
    64
 62
7
  6
CONTINUOUS
  0
ENDTAB
  0
TABLE
  2
STYLE
 70
    1
  0
STYLE
  2
ROMANC
70
     0
 40
0.0
 41
1.0
 50
0.0
 71
     0
 42
0.2
  3
ROMANC
  4

  0
ENDTAB
  0
ENDSEC
  0
SECTION
  2
BLOCKS
  0
ENDSEC
  0
SECTION
  2
ENTITIES
  0
TEXT
  8
0
  6
CONTINUOUS
 40
0.100000
 10
286.909000
 20
41.324000
  1
2
  7
ROMANC
  0
TEXT
  8
0
  6
CONTINUOUS
 40
0.300000
 10
283.926000
 20
41.768000
  1
ESCALA  1:50
  7
ROMANC
  0
POLYLINE
  8
0
  6
CONTINUOUS
 66
     1
 70
     1
  0
VERTEX
  8
0
  6
CONTINUOUS
 10
281.396000
 20
44.747000
  0
VERTEX
  8
0
  6
CONTINUOUS
 10
291.896000
 20
44.747000
  0
VERTEX
  8
0
  6
CONTINUOUS
 10
291.896000
 20
29.897000
  0
VERTEX
  8
0
  6
CONTINUOUS
 10
281.396000
 20
29.897000
  0
SEQEND
  8
0
  0
TEXT
  8
0
  6
CONTINUOUS
 40
0.300000
 10
283.926000
 20
42.381000
  1
TIPUS   T155
  7
ROMANC
  0
ARC
  8
1
  6
CONTINUOUS
 10
286.454487
 20
35.319872
 40
0.557457
 50
543.380544
 51
564.691944
  0
LINE
  8
1
  6
CONTINUOUS
 10
285.948000
 20
35.087000
 11
286.048000
 21
33.687000
  0
TEXT
  8
0
  6
CONTINUOUS
 40
0.300000
 10
283.922000
 20
40.529000
  1
P = 54 dm
  7
ROMANC
  0
TEXT
  8
0
  6
CONTINUOUS
 40
0.300000
 10
283.945000
 20
41.099000
  1
S = 151  dm
  7
ROMANC
  0
LINE
  8
1
  6
CONTINUOUS
 10
286.048000
 20
33.687000
 11
286.148000
 21
33.687000
  0
ARC
  8
1
  6
CONTINUOUS
 10
286.348000
 20
33.745333
 40
0.208333
 50
196.260206
 51
343.739797
  0
LINE
  8
1
  6
CONTINUOUS
 10
286.548000
 20
33.687000
 11
286.648000
 21
33.687000
  0
TEXT
  8
1
  6
CONTINUOUS
 40
0.075000
 10
286.745000
 20
33.310000
  1
0.10
  7
ROMANC
  0
LINE
  8
1
  6
CONTINUOUS
 10
286.398000
 20
33.347000
 11
286.548000
 21
33.347000
  0
LINE
  8
1
  6
CONTINUOUS
 10
286.707000
 20
33.347000
 11
286.648000
 21
33.347000
  0
LINE
  8
1
  6
CONTINUOUS
 10
286.586000
 20
33.366000
 11
286.510000
 21
33.328000
  0
LINE
  8
1
  6
CONTINUOUS
 10
286.610000
 20
33.328000
 11
286.686000
 21
33.366000
  0
LINE
  8
1
  6
CONTINUOUS
 10
286.548000
 20
33.649000
 11
286.548000
 21
33.309000
  0
LINE
  8
1
  6
CONTINUOUS
 10
286.648000
 20
33.649000
 11
286.648000
 21
33.309000
  0
TEXT
  8
1
  6
CONTINUOUS
 40
0.075000
 10
286.229000
 20
32.966000
  1
0.60
  7
ROMANC
  0
LINE
  8
1
  6
CONTINUOUS
 10
285.898000
 20
33.004000
 11
286.048000
 21
33.004000
  0
LINE
  8
1
  6
CONTINUOUS
 10
286.798000
 20
33.004000
 11
286.648000
 21
33.004000
  0
LINE
  8
1
  6
CONTINUOUS
 10
286.086000
 20
33.023000
 11
286.010000
 21
32.985000
  0
LINE
  8
1
  6
CONTINUOUS
 10
286.610000
 20
32.985000
 11
286.686000
 21
33.023000
  0
LINE
  8
1
  6
CONTINUOUS
 10
286.048000
 20
33.649000
 11
286.048000
 21
32.966000
  0
LINE
  8
1
  6
CONTINUOUS
 10
286.648000
 20
33.649000
 11
286.648000
 21
32.966000
  0
TEXT
  8
1
  6
CONTINUOUS
 40
0.075000
 10
286.844000
 20
33.862000
  1
0.15
 50
90.000000
  7
ROMANC
  0
LINE
  8
1
  6
CONTINUOUS
 10
286.806000
 20
33.387000
 11
286.806000
 21
33.537000
  0
LINE
  8
1
  6
CONTINUOUS
 10
286.806000
 20
33.824000
 11
286.806000
 21
33.687000
  0
LINE
  8
1
  6
CONTINUOUS
 10
286.787000
 20
33.574000
 11
286.825000
 21
33.500000
  0
LINE
  8
1
  6
CONTINUOUS
 10
286.825000
 20
33.650000
 11
286.787000
 21
33.724000
  0
LINE
  8
1
  6
CONTINUOUS
 10
286.386000
 20
33.537000
 11
286.844000
 21
33.537000
  0
LINE
  8
1
  6
CONTINUOUS
 10
286.686000
 20
33.687000
 11
286.844000
 21
33.687000
  0
LINE
  8
1
  6
CONTINUOUS
 10
286.648000
 20
33.687000
 11
286.748000
 21
35.087000
  0
TEXT
  8
1
  6
CONTINUOUS
 40
0.075000
 10
287.048000
 20
34.274000
  1
1.40
 50
90.000000
  7
ROMANC
  0
LINE
  8
1
  6
CONTINUOUS
 10
287.011000
 20
34.236000
 11
287.011000
 21
33.687000
  0
LINE
  8
1
  6
CONTINUOUS
 10
287.011000
 20
34.538000
 11
287.011000
 21
35.087000
  0
LINE
  8
1
  6
CONTINUOUS
 10
287.030000
 20
33.650000
 11
286.992000
 21
33.724000
  0
LINE
  8
1
  6
CONTINUOUS
 10
286.992000
 20
35.124000
 11
287.030000
 21
35.050000
  0
LINE
  8
1
  6
CONTINUOUS
 10
286.686000
 20
33.687000
 11
287.049000
 21
33.687000
  0
LINE
  8
1
  6
CONTINUOUS
 10
286.786000
 20
35.087000
 11
287.049000
 21
35.087000
  0
ARC
  8
1
  6
CONTINUOUS
 10
286.247923
 20
35.318269
 40
0.550965
 50
335.181003
 51
356.746514
  0
TEXT
  8
1
  6
CONTINUOUS
 40
0.075000
 10
287.196000
 20
34.609000
  1
0.20
 50
90.000000
  7
ROMANC
  0
LINE
  8
1
  6
CONTINUOUS
 10
287.158000
 20
34.959000
 11
287.158000
 21
35.087000
  0
LINE
  8
1
  6
CONTINUOUS
 10
287.158000
 20
35.437000
 11
287.158000
 21
35.287000
  0
LINE
  8
1
  6
CONTINUOUS
 10
287.139000
 20
35.124000
 11
287.177000
 21
35.050000
  0
LINE
  8
1
  6
CONTINUOUS
 10
287.177000
 20
35.250000
 11
287.139000
 21
35.324000
  0
LINE
  8
1
  6
CONTINUOUS
 10
286.786000
 20
35.087000
 11
287.196000
 21
35.087000
  0
LINE
  8
1
  6
CONTINUOUS
 10
286.836000
 20
35.287000
 11
287.196000
 21
35.287000
  0
ARC
  8
1
  6
CONTINUOUS
 10
286.348000
 20
35.287000
 40
0.450000
 50
360.000000
 51
540.000000
  0
TEXT
  8
1
  6
CONTINUOUS
 40
0.075000
 10
287.046000
 20
35.395000
  1
0.45
 50
90.000000
  7
ROMANC
  0
LINE
  8
1
  6
CONTINUOUS
 10
287.008000
 20
35.137000
 11
287.008000
 21
35.287000
  0
LINE
  8
1
  6
CONTINUOUS
 10
287.008000
 20
35.887000
 11
287.008000
 21
35.737000
  0
LINE
  8
1
  6
CONTINUOUS
 10
286.989000
 20
35.324000
 11
287.027000
 21
35.250000
  0
LINE
  8
1
  6
CONTINUOUS
 10
287.027000
 20
35.700000
 11
286.989000
 21
35.774000
  0
LINE
  8
1
  6
CONTINUOUS
 10
286.836000
 20
35.287000
 11
287.046000
 21
35.287000
  0
LINE
  8
1
  6
CONTINUOUS
 10
286.386000
 20
35.737000
 11
287.046000
 21
35.737000
  0
TEXT
  8
1
  6
CONTINUOUS
 40
0.075000
 10
287.364000
 20
34.518000
  1
2.20
 50
90.000000
  7
ROMANC
  0
LINE
  8
1
  6
CONTINUOUS
 10
287.327000
 20
34.480000
 11
287.327000
 21
33.537000
  0
LINE
  8
1
  6
CONTINUOUS
 10
287.327000
 20
34.792000
 11
287.327000
 21
35.737000
  0
LINE
  8
1
  6
CONTINUOUS
 10
287.346000
 20
33.500000
 11
287.308000
 21
33.574000
  0
LINE
  8
1
  6
CONTINUOUS
 10
287.308000
 20
35.774000
 11
287.346000
 21
35.700000
  0
LINE
  8
1
  6
CONTINUOUS
 10
286.386000
 20
33.537000
 11
287.365000
 21
33.537000
  0
LINE
  8
1
  6
CONTINUOUS
 10
286.386000
 20
35.737000
 11
287.365000
 21
35.737000
  0
TEXT
  8
1
  6
CONTINUOUS
 40
0.075000
 10
286.229000
 20
35.870000
  1
0.90
  7
ROMANC
  0
LINE
  8
1
  6
CONTINUOUS
 10
286.191000
 20
35.908000
 11
285.898000
 21
35.908000
  0
LINE
  8
1
  6
CONTINUOUS
 10
286.503000
 20
35.908000
 11
286.798000
 21
35.908000
  0
LINE
  8
1
  6
CONTINUOUS
 10
285.860000
 20
35.889000
 11
285.936000
 21
35.927000
  0
LINE
  8
1
  6
CONTINUOUS
 10
286.836000
 20
35.927000
 11
286.760000
 21
35.889000
  0
LINE
  8
1
  6
CONTINUOUS
 10
285.898000
 20
35.325000
 11
285.898000
 21
35.946000
  0
LINE
  8
1
  6
CONTINUOUS
 10
286.798000
 20
35.325000
 11
286.798000
 21
35.946000
  0
LINE
  8
1
  6
CONTINUOUS
 10
286.656000
 20
33.677000
 11
286.757000
 21
35.082000
  0
LINE
  8
1
  6
CONTINUOUS
 10
286.666000
 20
33.667000
 11
286.767000
 21
35.080000
  0
LINE
  8
1
  6
CONTINUOUS
 10
285.938000
 20
35.085000
 11
286.039000
 21
33.677000
  0
LINE
  8
1
  6
CONTINUOUS
 10
285.928000
 20
35.082000
 11
286.029000
 21
33.667000
  0
ARC
  8
1
  6
CONTINUOUS
 10
286.454487
 20
35.319872
 40
0.567457
 50
543.380544
 51
564.494439
  0
ARC
  8
1
  6
CONTINUOUS
 10
286.454487
 20
35.319872
 40
0.577457
 50
543.380544
 51
564.301661
  0
ARC
  8
1
  6
CONTINUOUS
 10
286.247923
 20
35.318269
 40
0.560965
 50
695.093181
 51
716.746514
  0
ARC
  8
1
  6
CONTINUOUS
 10
286.247923
 20
35.318269
 40
0.570965
 50
335.291986
 51
356.746514
  0
TEXT
  8
1
  6
CONTINUOUS
 40
0.075000
 10
285.642000
 20
33.306000
  1
0.10
  7
ROMANC
  0
LINE
  8
1
  6
CONTINUOUS
 10
285.975000
 20
33.343000
 11
286.048000
 21
33.343000
  0
LINE
  8
1
  6
CONTINUOUS
 10
286.298000
 20
33.343000
 11
286.148000
 21
33.343000
  0
LINE
  8
1
  6
CONTINUOUS
 10
286.086000
 20
33.362000
 11
286.010000
 21
33.324000
  0
LINE
  8
1
  6
CONTINUOUS
 10
286.110000
 20
33.324000
 11
286.186000
 21
33.362000
  0
LINE
  8
1
  6
CONTINUOUS
 10
286.048000
 20
33.649000
 11
286.048000
 21
33.305000
  0
LINE
  8
1
  6
CONTINUOUS
 10
286.148000
 20
33.649000
 11
286.148000
 21
33.305000
  0
TEXT
  8
1
  6
CONTINUOUS
 40
0.075000
 10
286.226000
 20
33.142000
  1
0.40
  7
ROMANC
  0
LINE
  8
1
  6
CONTINUOUS
 10
285.998000
 20
33.180000
 11
286.148000
 21
33.180000
  0
LINE
  8
1
  6
CONTINUOUS
 10
286.698000
 20
33.180000
 11
286.548000
 21
33.180000
  0
LINE
  8
1
  6
CONTINUOUS
 10
286.186000
 20
33.199000
 11
286.110000
 21
33.161000
  0
LINE
  8
1
  6
CONTINUOUS
 10
286.510000
 20
33.161000
 11
286.586000
 21
33.199000
  0
LINE
  8
1
  6
CONTINUOUS
 10
286.148000
 20
33.649000
 11
286.148000
 21
33.142000
  0
LINE
  8
1
  6
CONTINUOUS
 10
286.548000
 20
33.649000
 11
286.548000
 21
33.142000
  0
LINE
  8
1
  6
CONTINUOUS
 10
286.039000
 20
33.677000
 11
286.141000
 21
33.677000
  0
LINE
  8
1
  6
CONTINUOUS
 10
286.029000
 20
33.667000
 11
286.134000
 21
33.667000
  0
ARC
  8
1
  6
CONTINUOUS
 10
286.348000
 20
33.745333
 40
0.218333
 50
198.238736
 51
341.761264
  0
ARC
  8
1
  6
CONTINUOUS
 10
286.348000
 20
33.745333
 40
0.228333
 50
200.063764
 51
339.936236
  0
LINE
  8
1
  6
CONTINUOUS
 10
286.555000
 20
33.677000
 11
286.656000
 21
33.677000
  0
LINE
  8
1
  6
CONTINUOUS
 10
286.562000
 20
33.667000
 11
286.666000
 21
33.667000
  0
ARC
  8
1
  6
CONTINUOUS
 10
286.348000
 20
35.287000
 40
0.460000
 50
360.000000
 51
540.000000
  0
ARC
  8
1
  6
CONTINUOUS
 10
286.348000
 20
35.287000
 40
0.470000
 50
360.000000
 51
540.000000
  0
ENDSEC
  0
EOF
