  0
SECTION
  2
HEADER
  9
$ACADVER
  1
AC1009
  9
$INSBASE
 10
0.0
 20
0.0
 30
0.0
  9
$EXTMIN
 10
281.396000
 20
29.897000
 30
-2147483.648000
  9
$EXTMAX
 10
291.896000
 20
44.747000
 30
0.000000
  9
$LIMMIN
 10
280.396000
 20
28.897000
  9
$LIMMAX
 10
292.896000
 20
43.747000
  9
$ORTHOMODE
 70
     0
  9
$REGENMODE
 70
     1
  9
$FILLMODE
 70
     1
  9
$QTEXTMODE
 70
     0
  9
$MIRRTEXT
 70
     1
  9
$DRAGMODE
 70
     2
  9
$LTSCALE
 40
1.0
  9
$OSMODE
 70
     0
  9
$ATTMODE
 70
     1
  9
$TEXTSIZE
 40
0.2
  9
$TRACEWID
 40
0.05
  9
$TEXTSTYLE
  7
STANDARD
  9
$CLAYER
  8
0
  9
$CELTYPE
  6
BYLAYER
  9
$CECOLOR
 62
   256
  9
$DIMSCALE
 40
1.0
  9
$DIMASZ
 40
0.18
  9
$DIMEXO
 40
0.0625
  9
$DIMDLI
 40
0.38
  9
$DIMRND
 40
0.0
  9
$DIMDLE
 40
0.0
  9
$DIMEXE
 40
0.18
  9
$DIMTP
 40
0.0
  9
$DIMTM
 40
0.0
  9
$DIMTXT
 40
0.18
  9
$DIMCEN
 40
0.09
  9
$DIMTSZ
 40
0.0
  9
$DIMTOL
 70
     0
  9
$DIMLIM
 70
     0
  9
$DIMTIH
 70
     1
  9
$DIMTOH
 70
     1
  9
$DIMSE1
 70
     0
  9
$DIMSE2
 70
     0
  9
$DIMTAD
 70
     0
  9
$DIMZIN
 70
     0
  9
$DIMBLK
  1

  9
$DIMASO
 70
     1
  9
$DIMSHO
 70
     1
  9
$DIMPOST
  1

  9
$DIMAPOST
  1

  9
$DIMALT
 70
     0
  9
$DIMALTD
 70
     2
  9
$DIMALTF
 40
25.4
  9
$DIMLFAC
 40
1.0
  9
$DIMTOFL
 70
     0
  9
$DIMTVP
 40
0.0
  9
$DIMTIX
 70
     0
  9
$DIMSOXD
 70
     0
  9
$DIMSAH
 70
     0
  9
$DIMBLK1
  1

  9
$DIMBLK2
  1

  9
$DIMSTYLE
  2
*UNNAMED
  9
$DIMCLRD
 70
     0
  9
$DIMCLRE
 70
     0
  9
$DIMCLRT
 70
     0
  9
$DIMTFAC
 40
1.0
  9
$DIMGAP
 40
0.09
  9
$LUNITS
 70
     2
  9
$LUPREC
 70
     4
  9
$AXISMODE
 70
     0
  9
$AXISUNIT
 10
0.0
 20
0.0
  9
$SKETCHINC
 40
0.1
  9
$FILLETRAD
 40
0.0
  9
$AUNITS
 70
     0
  9
$AUPREC
 70
     0
  9
$MENU
  1
acad
  9
$ELEVATION
 40
0.0
  9
$PELEVATION
 40
0.0
  9
$THICKNESS
 40
0.0
  9
$LIMCHECK
 70
     0
  9
$BLIPMODE
 70
     1
  9
$CHAMFERA
 40
0.0
  9
$CHAMFERB
 40
0.0
  9
$SKPOLY
 70
     0
  9
$TDCREATE
 40
2448315.373408102
  9
$TDUPDATE
 40
2448315.373408102
  9
$TDINDWG
 40
0.0000000000
  9
$TDUSRTIMER
 40
0.0000000000
  9
$USRTIMER
 70
     1
  9
$ANGBASE
 50
0.0
  9
$ANGDIR
 70
     0
  9
$PDMODE
 70
     0
  9
$PDSIZE
 40
0.0
  9
$PLINEWID
 40
0.0
  9
$COORDS
 70
     0
  9
$SPLFRAME
 70
     0
  9
$SPLINETYPE
 70
     6
  9
$SPLINESEGS
 70
     8
  9
$ATTDIA
 70
     0
  9
$ATTREQ
 70
     1
  9
$HANDLING
 70
     0
  9
$HANDSEED
  5
0
  9
$SURFTAB1
 70
     6
  9
$SURFTAB2
 70
     6
  9
$SURFTYPE
 70
     6
  9
$SURFU
 70
     6
  9
$SURFV
 70
     6
  9
$UCSNAME
  2

  9
$UCSORG
 10
0.0
 20
0.0
 30
0.0
  9
$UCSXDIR
 10
1.0
 20
0.0
 30
0.0
  9
$UCSYDIR
 10
0.0
 20
1.0
 30
0.0
  9
$PUCSNAME
  2

  9
$PUCSORG
 10
0.0
 20
0.0
 30
0.0
  9
$PUCSXDIR
 10
1.0
 20
0.0
 30
0.0
  9
$PUCSYDIR
 10
0.0
 20
1.0
 30
0.0
  9
$USERI1
 70
     0
  9
$USERI2
 70
     0
  9
$USERI3
 70
     0
  9
$USERI4
 70
     0
  9
$USERI5
 70
     0
  9
$USERR1
 40
0.0
  9
$USERR2
 40
0.0
  9
$USERR3
 40
0.0
  9
$USERR4
 40
0.0
  9
$USERR5
 40
0.0
  9
$WORLDVIEW
 70
     1
  9
$SHADEDGE
 70
     3
  9
$SHADEDIF
 70
    70
  9
$TILEMODE
 70
     1
  9
$MAXACTVP
 70
    16
  9
$PINSBASE
 10
0.0
 20
0.0
 30
0.0
  9
$PLIMCHECK
 70
     0
  9
$PEXTMIN
 10
1.000000E+20
 20
1.000000E+20
 30
1.000000E+20
  9
$PEXTMAX
 10
-1.000000E+20
 20
-1.000000E+20
 30
-1.000000E+20
  9
$PLIMMIN
 10
0.0
 20
0.0
  9
$PLIMMAX
 10
12.0
 20
9.0
  9
$UNITMODE
 70
     0
  9
$VISRETAIN
 70
     0
  0
ENDSEC
  0
SECTION
  2
TABLES
  0
TABLE
  2
LTYPE
 70
    1
  0
LTYPE
  2
CONTINUOUS
 70
    64
3
Solid line
 72
    65
 73
0
 40
0.000000
  0
ENDTAB
  0
TABLE
  2
LAYER
 70
    8
  0
LAYER
  2
0
 70
    64
 62
7
  6
CONTINUOUS
  0
LAYER
  2
1
 70
    64
 62
7
  6
CONTINUOUS
  0
LAYER
  2
7
 70
    64
 62
7
  6
CONTINUOUS
  0
LAYER
  2
8
 70
    64
 62
7
  6
CONTINUOUS
  0
LAYER
  2
9
 70
    64
 62
7
  6
CONTINUOUS
  0
LAYER
  2
22
 70
    64
 62
7
  6
CONTINUOUS
  0
LAYER
  2
25
 70
    64
 62
7
  6
CONTINUOUS
  0
LAYER
  2
0
 70
    64
 62
7
  6
CONTINUOUS
  0
ENDTAB
  0
TABLE
  2
STYLE
 70
    1
  0
STYLE
  2
ROMANC
70
     0
 40
0.0
 41
1.0
 50
0.0
 71
     0
 42
0.2
  3
ROMANC
  4

  0
ENDTAB
  0
ENDSEC
  0
SECTION
  2
BLOCKS
  0
ENDSEC
  0
SECTION
  2
ENTITIES
  0
TEXT
  8
0
  6
CONTINUOUS
 40
0.100000
 10
286.909000
 20
41.324000
  1
2
  7
ROMANC
  0
TEXT
  8
0
  6
CONTINUOUS
 40
0.300000
 10
283.926000
 20
41.768000
  1
ESCALA  1:50
  7
ROMANC
  0
POLYLINE
  8
0
  6
CONTINUOUS
 66
     1
 70
     1
  0
VERTEX
  8
0
  6
CONTINUOUS
 10
281.396000
 20
44.747000
  0
VERTEX
  8
0
  6
CONTINUOUS
 10
291.896000
 20
44.747000
  0
VERTEX
  8
0
  6
CONTINUOUS
 10
291.896000
 20
29.897000
  0
VERTEX
  8
0
  6
CONTINUOUS
 10
281.396000
 20
29.897000
  0
SEQEND
  8
0
  0
TEXT
  8
0
  6
CONTINUOUS
 40
0.300000
 10
283.926000
 20
42.381000
  1
TIPUS   T154A
  7
ROMANC
  0
ARC
  8
1
  6
CONTINUOUS
 10
286.633000
 20
34.857857
 40
0.607143
 50
385.057614
 51
514.942383
  0
LINE
  8
1
  6
CONTINUOUS
 10
286.083000
 20
35.115000
 11
286.083000
 21
33.965000
  0
TEXT
  8
0
  6
CONTINUOUS
 40
0.300000
 10
283.922000
 20
40.529000
  1
P =  48 dm
  7
ROMANC
  0
LINE
  8
1
  6
CONTINUOUS
 10
286.083000
 20
33.965000
 11
287.183000
 21
33.965000
  0
LINE
  8
1
  6
CONTINUOUS
 10
287.183000
 20
33.965000
 11
287.183000
 21
35.115000
  0
TEXT
  8
1
  6
CONTINUOUS
 40
0.075000
 10
286.532000
 20
33.714000
  1
1.10
  7
ROMANC
  0
LINE
  8
1
  6
CONTINUOUS
 10
286.494000
 20
33.751000
 11
286.083000
 21
33.751000
  0
LINE
  8
1
  6
CONTINUOUS
 10
286.771000
 20
33.751000
 11
287.183000
 21
33.751000
  0
LINE
  8
1
  6
CONTINUOUS
 10
286.046000
 20
33.732000
 11
286.120000
 21
33.770000
  0
LINE
  8
1
  6
CONTINUOUS
 10
287.220000
 20
33.770000
 11
287.146000
 21
33.732000
  0
LINE
  8
1
  6
CONTINUOUS
 10
286.083000
 20
33.927000
 11
286.083000
 21
33.713000
  0
LINE
  8
1
  6
CONTINUOUS
 10
287.183000
 20
33.927000
 11
287.183000
 21
33.713000
  0
TEXT
  8
1
  6
CONTINUOUS
 40
0.075000
 10
287.398000
 20
34.439000
  1
1.15
 50
90.000000
  7
ROMANC
  0
LINE
  8
1
  6
CONTINUOUS
 10
287.360000
 20
34.401000
 11
287.360000
 21
33.965000
  0
LINE
  8
1
  6
CONTINUOUS
 10
287.360000
 20
34.678000
 11
287.360000
 21
35.115000
  0
LINE
  8
1
  6
CONTINUOUS
 10
287.379000
 20
33.928000
 11
287.341000
 21
34.002000
  0
LINE
  8
1
  6
CONTINUOUS
 10
287.341000
 20
35.152000
 11
287.379000
 21
35.078000
  0
LINE
  8
1
  6
CONTINUOUS
 10
287.221000
 20
33.965000
 11
287.398000
 21
33.965000
  0
LINE
  8
1
  6
CONTINUOUS
 10
287.221000
 20
35.115000
 11
287.398000
 21
35.115000
  0
TEXT
  8
1
  6
CONTINUOUS
 40
0.075000
 10
287.398000
 20
35.185000
  1
0.35
 50
90.000000
  7
ROMANC
  0
LINE
  8
1
  6
CONTINUOUS
 10
287.360000
 20
34.965000
 11
287.360000
 21
35.115000
  0
LINE
  8
1
  6
CONTINUOUS
 10
287.360000
 20
35.612000
 11
287.360000
 21
35.462000
  0
LINE
  8
1
  6
CONTINUOUS
 10
287.341000
 20
35.152000
 11
287.379000
 21
35.078000
  0
LINE
  8
1
  6
CONTINUOUS
 10
287.379000
 20
35.424000
 11
287.341000
 21
35.500000
  0
LINE
  8
1
  6
CONTINUOUS
 10
286.676000
 20
35.462000
 11
287.398000
 21
35.462000
  0
TEXT
  8
1
  6
CONTINUOUS
 40
0.075000
 10
287.608000
 20
34.605000
  1
1.50
 50
90.000000
  7
ROMANC
  0
LINE
  8
1
  6
CONTINUOUS
 10
287.570000
 20
34.567000
 11
287.570000
 21
33.965000
  0
LINE
  8
1
  6
CONTINUOUS
 10
287.570000
 20
34.862000
 11
287.570000
 21
35.465000
  0
LINE
  8
1
  6
CONTINUOUS
 10
287.589000
 20
33.928000
 11
287.551000
 21
34.002000
  0
LINE
  8
1
  6
CONTINUOUS
 10
287.551000
 20
35.502000
 11
287.589000
 21
35.428000
  0
LINE
  8
1
  6
CONTINUOUS
 10
287.221000
 20
33.965000
 11
287.608000
 21
33.965000
  0
LINE
  8
1
  6
CONTINUOUS
 10
286.682000
 20
35.465000
 11
287.608000
 21
35.465000
  0
LINE
  8
1
  6
CONTINUOUS
 10
286.073000
 20
35.117000
 11
286.073000
 21
33.955000
  0
LINE
  8
1
  6
CONTINUOUS
 10
286.063000
 20
35.119000
 11
286.063000
 21
33.945000
  0
ARC
  8
1
  6
CONTINUOUS
 10
286.633000
 20
34.857857
 40
0.617143
 50
384.850503
 51
515.149497
  0
ARC
  8
1
  6
CONTINUOUS
 10
286.633000
 20
34.857857
 40
0.627143
 50
384.648442
 51
515.351558
  0
LINE
  8
1
  6
CONTINUOUS
 10
287.193000
 20
33.955000
 11
287.193000
 21
35.117000
  0
LINE
  8
1
  6
CONTINUOUS
 10
287.203000
 20
33.945000
 11
287.203000
 21
35.119000
  0
LINE
  8
1
  6
CONTINUOUS
 10
286.073000
 20
33.955000
 11
287.193000
 21
33.955000
  0
LINE
  8
1
  6
CONTINUOUS
 10
286.063000
 20
33.945000
 11
287.203000
 21
33.945000
  0
TEXT
  8
0
  6
CONTINUOUS
 40
0.300000
 10
283.945000
 20
41.099000
  1
S = 154dm
  7
ROMANC
  0
ENDSEC
  0
EOF
