  0
SECTION
  2
HEADER
  9
$ACADVER
  1
AC1009
  9
$INSBASE
 10
0.0
 20
0.0
 30
0.0
  9
$EXTMIN
 10
281.396000
 20
29.897000
 30
-2147483.648000
  9
$EXTMAX
 10
291.896000
 20
44.747000
 30
0.000000
  9
$LIMMIN
 10
280.396000
 20
28.897000
  9
$LIMMAX
 10
292.896000
 20
43.747000
  9
$ORTHOMODE
 70
     0
  9
$REGENMODE
 70
     1
  9
$FILLMODE
 70
     1
  9
$QTEXTMODE
 70
     0
  9
$MIRRTEXT
 70
     1
  9
$DRAGMODE
 70
     2
  9
$LTSCALE
 40
1.0
  9
$OSMODE
 70
     0
  9
$ATTMODE
 70
     1
  9
$TEXTSIZE
 40
0.2
  9
$TRACEWID
 40
0.05
  9
$TEXTSTYLE
  7
STANDARD
  9
$CLAYER
  8
0
  9
$CELTYPE
  6
BYLAYER
  9
$CECOLOR
 62
   256
  9
$DIMSCALE
 40
1.0
  9
$DIMASZ
 40
0.18
  9
$DIMEXO
 40
0.0625
  9
$DIMDLI
 40
0.38
  9
$DIMRND
 40
0.0
  9
$DIMDLE
 40
0.0
  9
$DIMEXE
 40
0.18
  9
$DIMTP
 40
0.0
  9
$DIMTM
 40
0.0
  9
$DIMTXT
 40
0.18
  9
$DIMCEN
 40
0.09
  9
$DIMTSZ
 40
0.0
  9
$DIMTOL
 70
     0
  9
$DIMLIM
 70
     0
  9
$DIMTIH
 70
     1
  9
$DIMTOH
 70
     1
  9
$DIMSE1
 70
     0
  9
$DIMSE2
 70
     0
  9
$DIMTAD
 70
     0
  9
$DIMZIN
 70
     0
  9
$DIMBLK
  1

  9
$DIMASO
 70
     1
  9
$DIMSHO
 70
     1
  9
$DIMPOST
  1

  9
$DIMAPOST
  1

  9
$DIMALT
 70
     0
  9
$DIMALTD
 70
     2
  9
$DIMALTF
 40
25.4
  9
$DIMLFAC
 40
1.0
  9
$DIMTOFL
 70
     0
  9
$DIMTVP
 40
0.0
  9
$DIMTIX
 70
     0
  9
$DIMSOXD
 70
     0
  9
$DIMSAH
 70
     0
  9
$DIMBLK1
  1

  9
$DIMBLK2
  1

  9
$DIMSTYLE
  2
*UNNAMED
  9
$DIMCLRD
 70
     0
  9
$DIMCLRE
 70
     0
  9
$DIMCLRT
 70
     0
  9
$DIMTFAC
 40
1.0
  9
$DIMGAP
 40
0.09
  9
$LUNITS
 70
     2
  9
$LUPREC
 70
     4
  9
$AXISMODE
 70
     0
  9
$AXISUNIT
 10
0.0
 20
0.0
  9
$SKETCHINC
 40
0.1
  9
$FILLETRAD
 40
0.0
  9
$AUNITS
 70
     0
  9
$AUPREC
 70
     0
  9
$MENU
  1
acad
  9
$ELEVATION
 40
0.0
  9
$PELEVATION
 40
0.0
  9
$THICKNESS
 40
0.0
  9
$LIMCHECK
 70
     0
  9
$BLIPMODE
 70
     1
  9
$CHAMFERA
 40
0.0
  9
$CHAMFERB
 40
0.0
  9
$SKPOLY
 70
     0
  9
$TDCREATE
 40
2448315.373408102
  9
$TDUPDATE
 40
2448315.373408102
  9
$TDINDWG
 40
0.0000000000
  9
$TDUSRTIMER
 40
0.0000000000
  9
$USRTIMER
 70
     1
  9
$ANGBASE
 50
0.0
  9
$ANGDIR
 70
     0
  9
$PDMODE
 70
     0
  9
$PDSIZE
 40
0.0
  9
$PLINEWID
 40
0.0
  9
$COORDS
 70
     0
  9
$SPLFRAME
 70
     0
  9
$SPLINETYPE
 70
     6
  9
$SPLINESEGS
 70
     8
  9
$ATTDIA
 70
     0
  9
$ATTREQ
 70
     1
  9
$HANDLING
 70
     0
  9
$HANDSEED
  5
0
  9
$SURFTAB1
 70
     6
  9
$SURFTAB2
 70
     6
  9
$SURFTYPE
 70
     6
  9
$SURFU
 70
     6
  9
$SURFV
 70
     6
  9
$UCSNAME
  2

  9
$UCSORG
 10
0.0
 20
0.0
 30
0.0
  9
$UCSXDIR
 10
1.0
 20
0.0
 30
0.0
  9
$UCSYDIR
 10
0.0
 20
1.0
 30
0.0
  9
$PUCSNAME
  2

  9
$PUCSORG
 10
0.0
 20
0.0
 30
0.0
  9
$PUCSXDIR
 10
1.0
 20
0.0
 30
0.0
  9
$PUCSYDIR
 10
0.0
 20
1.0
 30
0.0
  9
$USERI1
 70
     0
  9
$USERI2
 70
     0
  9
$USERI3
 70
     0
  9
$USERI4
 70
     0
  9
$USERI5
 70
     0
  9
$USERR1
 40
0.0
  9
$USERR2
 40
0.0
  9
$USERR3
 40
0.0
  9
$USERR4
 40
0.0
  9
$USERR5
 40
0.0
  9
$WORLDVIEW
 70
     1
  9
$SHADEDGE
 70
     3
  9
$SHADEDIF
 70
    70
  9
$TILEMODE
 70
     1
  9
$MAXACTVP
 70
    16
  9
$PINSBASE
 10
0.0
 20
0.0
 30
0.0
  9
$PLIMCHECK
 70
     0
  9
$PEXTMIN
 10
1.000000E+20
 20
1.000000E+20
 30
1.000000E+20
  9
$PEXTMAX
 10
-1.000000E+20
 20
-1.000000E+20
 30
-1.000000E+20
  9
$PLIMMIN
 10
0.0
 20
0.0
  9
$PLIMMAX
 10
12.0
 20
9.0
  9
$UNITMODE
 70
     0
  9
$VISRETAIN
 70
     0
  0
ENDSEC
  0
SECTION
  2
TABLES
  0
TABLE
  2
LTYPE
 70
    1
  0
LTYPE
  2
CONTINUOUS
 70
    64
3
Solid line
 72
    65
 73
0
 40
0.000000
  0
ENDTAB
  0
TABLE
  2
LAYER
 70
    8
  0
LAYER
  2
0
 70
    64
 62
7
  6
CONTINUOUS
  0
LAYER
  2
1
 70
    64
 62
7
  6
CONTINUOUS
  0
LAYER
  2
7
 70
    64
 62
7
  6
CONTINUOUS
  0
LAYER
  2
8
 70
    64
 62
7
  6
CONTINUOUS
  0
LAYER
  2
9
 70
    64
 62
7
  6
CONTINUOUS
  0
LAYER
  2
22
 70
    64
 62
7
  6
CONTINUOUS
  0
LAYER
  2
25
 70
    64
 62
7
  6
CONTINUOUS
  0
LAYER
  2
0
 70
    64
 62
7
  6
CONTINUOUS
  0
ENDTAB
  0
TABLE
  2
STYLE
 70
    1
  0
STYLE
  2
ROMANC
70
     0
 40
0.0
 41
1.0
 50
0.0
 71
     0
 42
0.2
  3
ROMANC
  4

  0
ENDTAB
  0
ENDSEC
  0
SECTION
  2
BLOCKS
  0
ENDSEC
  0
SECTION
  2
ENTITIES
  0
TEXT
  8
0
  6
CONTINUOUS
 40
0.100000
 10
286.909000
 20
41.324000
  1
2
  7
ROMANC
  0
TEXT
  8
0
  6
CONTINUOUS
 40
0.300000
 10
283.926000
 20
41.768000
  1
ESCALA  1:50
  7
ROMANC
  0
POLYLINE
  8
0
  6
CONTINUOUS
 66
     1
 70
     1
  0
VERTEX
  8
0
  6
CONTINUOUS
 10
281.396000
 20
44.747000
  0
VERTEX
  8
0
  6
CONTINUOUS
 10
291.896000
 20
44.747000
  0
VERTEX
  8
0
  6
CONTINUOUS
 10
291.896000
 20
29.897000
  0
VERTEX
  8
0
  6
CONTINUOUS
 10
281.396000
 20
29.897000
  0
SEQEND
  8
0
  0
TEXT
  8
0
  6
CONTINUOUS
 40
0.300000
 10
283.926000
 20
42.381000
  1
TIPUS   T151
  7
ROMANC
  0
TEXT
  8
0
  6
CONTINUOUS
 40
0.300000
 10
283.922000
 20
40.529000
  1
P = 49 dm
  7
ROMANC
  0
TEXT
  8
0
  6
CONTINUOUS
 40
0.300000
 10
283.945000
 20
41.099000
  1
S = 151 dm
  7
ROMANC
  0
LINE
  8
1
  6
CONTINUOUS
 10
285.877000
 20
34.036000
 11
285.577000
 21
34.036000
  0
ARC
  8
1
  6
CONTINUOUS
 10
286.077000
 20
34.094333
 40
0.208333
 50
196.260206
 51
343.739797
  0
TEXT
  8
1
  6
CONTINUOUS
 40
0.075000
 10
285.624000
 20
33.762000
  1
0.30
  7
ROMANC
  0
LINE
  8
1
  6
CONTINUOUS
 10
285.427000
 20
33.799000
 11
285.577000
 21
33.799000
  0
LINE
  8
1
  6
CONTINUOUS
 10
286.027000
 20
33.799000
 11
285.877000
 21
33.799000
  0
LINE
  8
1
  6
CONTINUOUS
 10
285.614000
 20
33.818000
 11
285.540000
 21
33.780000
  0
LINE
  8
1
  6
CONTINUOUS
 10
285.840000
 20
33.780000
 11
285.914000
 21
33.818000
  0
LINE
  8
1
  6
CONTINUOUS
 10
285.577000
 20
33.998000
 11
285.577000
 21
33.761000
  0
LINE
  8
1
  6
CONTINUOUS
 10
285.877000
 20
33.998000
 11
285.877000
 21
33.761000
  0
TEXT
  8
1
  6
CONTINUOUS
 40
0.075000
 10
285.955000
 20
33.614000
  1
0.40
  7
ROMANC
  0
LINE
  8
1
  6
CONTINUOUS
 10
285.727000
 20
33.652000
 11
285.877000
 21
33.652000
  0
LINE
  8
1
  6
CONTINUOUS
 10
286.427000
 20
33.652000
 11
286.277000
 21
33.652000
  0
LINE
  8
1
  6
CONTINUOUS
 10
285.914000
 20
33.671000
 11
285.840000
 21
33.633000
  0
LINE
  8
1
  6
CONTINUOUS
 10
286.240000
 20
33.633000
 11
286.314000
 21
33.671000
  0
LINE
  8
1
  6
CONTINUOUS
 10
285.877000
 20
33.998000
 11
285.877000
 21
33.614000
  0
LINE
  8
1
  6
CONTINUOUS
 10
286.277000
 20
33.998000
 11
286.277000
 21
33.614000
  0
LINE
  8
1
  6
CONTINUOUS
 10
286.577000
 20
34.036000
 11
286.277000
 21
34.036000
  0
LINE
  8
1
  6
CONTINUOUS
 10
286.577000
 20
35.286000
 11
286.577000
 21
34.036000
  0
TEXT
  8
1
  6
CONTINUOUS
 40
0.075000
 10
286.326000
 20
33.762000
  1
0.30
  7
ROMANC
  0
LINE
  8
1
  6
CONTINUOUS
 10
286.127000
 20
33.799000
 11
286.277000
 21
33.799000
  0
LINE
  8
1
  6
CONTINUOUS
 10
286.727000
 20
33.799000
 11
286.577000
 21
33.799000
  0
LINE
  8
1
  6
CONTINUOUS
 10
286.314000
 20
33.818000
 11
286.240000
 21
33.780000
  0
LINE
  8
1
  6
CONTINUOUS
 10
286.540000
 20
33.780000
 11
286.614000
 21
33.818000
  0
LINE
  8
1
  6
CONTINUOUS
 10
286.277000
 20
33.998000
 11
286.277000
 21
33.761000
  0
LINE
  8
1
  6
CONTINUOUS
 10
286.577000
 20
33.998000
 11
286.577000
 21
33.761000
  0
TEXT
  8
1
  6
CONTINUOUS
 40
0.075000
 10
286.800000
 20
34.185000
  1
0.15
 50
90.000000
  7
ROMANC
  0
LINE
  8
1
  6
CONTINUOUS
 10
286.762000
 20
33.736000
 11
286.762000
 21
33.886000
  0
LINE
  8
1
  6
CONTINUOUS
 10
286.762000
 20
34.147000
 11
286.762000
 21
34.036000
  0
LINE
  8
1
  6
CONTINUOUS
 10
286.743000
 20
33.924000
 11
286.781000
 21
33.848000
  0
LINE
  8
1
  6
CONTINUOUS
 10
286.781000
 20
33.998000
 11
286.743000
 21
34.074000
  0
LINE
  8
1
  6
CONTINUOUS
 10
286.115000
 20
33.886000
 11
286.800000
 21
33.886000
  0
LINE
  8
1
  6
CONTINUOUS
 10
286.615000
 20
34.036000
 11
286.800000
 21
34.036000
  0
TEXT
  8
1
  6
CONTINUOUS
 40
0.075000
 10
287.090000
 20
34.626000
  1
1.70
 50
90.000000
  7
ROMANC
  0
LINE
  8
1
  6
CONTINUOUS
 10
287.052000
 20
34.588000
 11
287.052000
 21
33.886000
  0
LINE
  8
1
  6
CONTINUOUS
 10
287.052000
 20
34.883000
 11
287.052000
 21
35.586000
  0
LINE
  8
1
  6
CONTINUOUS
 10
287.071000
 20
33.848000
 11
287.033000
 21
33.924000
  0
LINE
  8
1
  6
CONTINUOUS
 10
287.033000
 20
35.624000
 11
287.071000
 21
35.548000
  0
LINE
  8
1
  6
CONTINUOUS
 10
286.115000
 20
33.886000
 11
287.090000
 21
33.886000
  0
LINE
  8
1
  6
CONTINUOUS
 10
286.115000
 20
35.586000
 11
287.090000
 21
35.586000
  0
LINE
  8
1
  6
CONTINUOUS
 10
285.577000
 20
34.036000
 11
285.577000
 21
35.286000
  0
TEXT
  8
1
  6
CONTINUOUS
 40
0.075000
 10
285.967000
 20
33.444000
  1
1.00
  7
ROMANC
  0
LINE
  8
1
  6
CONTINUOUS
 10
285.929000
 20
33.482000
 11
285.577000
 21
33.482000
  0
LINE
  8
1
  6
CONTINUOUS
 10
286.224000
 20
33.482000
 11
286.577000
 21
33.482000
  0
LINE
  8
1
  6
CONTINUOUS
 10
285.540000
 20
33.463000
 11
285.614000
 21
33.501000
  0
LINE
  8
1
  6
CONTINUOUS
 10
286.614000
 20
33.501000
 11
286.540000
 21
33.463000
  0
LINE
  8
1
  6
CONTINUOUS
 10
285.577000
 20
33.998000
 11
285.577000
 21
33.444000
  0
LINE
  8
1
  6
CONTINUOUS
 10
286.577000
 20
33.998000
 11
286.577000
 21
33.444000
  0
TEXT
  8
1
  6
CONTINUOUS
 40
0.075000
 10
286.902000
 20
34.551000
  1
1.25
 50
90.000000
  7
ROMANC
  0
LINE
  8
1
  6
CONTINUOUS
 10
286.865000
 20
34.513000
 11
286.865000
 21
34.036000
  0
LINE
  8
1
  6
CONTINUOUS
 10
286.865000
 20
34.808000
 11
286.865000
 21
35.286000
  0
LINE
  8
1
  6
CONTINUOUS
 10
286.884000
 20
33.998000
 11
286.846000
 21
34.074000
  0
LINE
  8
1
  6
CONTINUOUS
 10
286.846000
 20
35.324000
 11
286.884000
 21
35.248000
  0
LINE
  8
1
  6
CONTINUOUS
 10
286.615000
 20
34.036000
 11
286.903000
 21
34.036000
  0
LINE
  8
1
  6
CONTINUOUS
 10
286.615000
 20
35.286000
 11
286.903000
 21
35.286000
  0
ARC
  8
1
  6
CONTINUOUS
 10
286.077000
 20
35.019333
 40
0.566667
 50
28.072489
 51
151.927514
  0
TEXT
  8
1
  6
CONTINUOUS
 40
0.075000
 10
286.902000
 20
35.324000
  1
0.30
 50
90.000000
  7
ROMANC
  0
LINE
  8
1
  6
CONTINUOUS
 10
286.865000
 20
35.136000
 11
286.865000
 21
35.286000
  0
LINE
  8
1
  6
CONTINUOUS
 10
286.865000
 20
35.736000
 11
286.865000
 21
35.586000
  0
LINE
  8
1
  6
CONTINUOUS
 10
286.846000
 20
35.324000
 11
286.884000
 21
35.248000
  0
LINE
  8
1
  6
CONTINUOUS
 10
286.884000
 20
35.548000
 11
286.846000
 21
35.624000
  0
LINE
  8
1
  6
CONTINUOUS
 10
286.615000
 20
35.286000
 11
286.903000
 21
35.286000
  0
LINE
  8
1
  6
CONTINUOUS
 10
286.115000
 20
35.586000
 11
286.903000
 21
35.586000
  0
ARC
  8
1
  6
CONTINUOUS
 10
286.077000
 20
35.019333
 40
0.576667
 50
27.823075
 51
152.176925
  0
ARC
  8
1
  6
CONTINUOUS
 10
286.077000
 20
35.019333
 40
0.586667
 50
27.580200
 51
152.419800
  0
LINE
  8
1
  6
CONTINUOUS
 10
286.587000
 20
35.288000
 11
286.587000
 21
34.026000
  0
LINE
  8
1
  6
CONTINUOUS
 10
286.597000
 20
35.291000
 11
286.597000
 21
34.016000
  0
LINE
  8
1
  6
CONTINUOUS
 10
285.567000
 20
34.026000
 11
285.567000
 21
35.288000
  0
LINE
  8
1
  6
CONTINUOUS
 10
285.557000
 20
34.016000
 11
285.557000
 21
35.291000
  0
LINE
  8
1
  6
CONTINUOUS
 10
285.870000
 20
34.026000
 11
285.567000
 21
34.026000
  0
LINE
  8
1
  6
CONTINUOUS
 10
285.863000
 20
34.016000
 11
285.557000
 21
34.016000
  0
ARC
  8
1
  6
CONTINUOUS
 10
286.077000
 20
34.094333
 40
0.218333
 50
198.238736
 51
341.761264
  0
ARC
  8
1
  6
CONTINUOUS
 10
286.077000
 20
34.094333
 40
0.228333
 50
200.063764
 51
339.936236
  0
LINE
  8
1
  6
CONTINUOUS
 10
286.587000
 20
34.026000
 11
286.284000
 21
34.026000
  0
LINE
  8
1
  6
CONTINUOUS
 10
286.597000
 20
34.016000
 11
286.291000
 21
34.016000
  0
ENDSEC
  0
EOF
