  0
SECTION
  2
HEADER
  9
$ACADVER
  1
AC1009
  9
$INSBASE
 10
0.0
 20
0.0
 30
0.0
  9
$EXTMIN
 10
281.396000
 20
29.897000
 30
-2147483.648000
  9
$EXTMAX
 10
291.896000
 20
44.747000
 30
0.000000
  9
$LIMMIN
 10
280.396000
 20
28.897000
  9
$LIMMAX
 10
292.896000
 20
43.747000
  9
$ORTHOMODE
 70
     0
  9
$REGENMODE
 70
     1
  9
$FILLMODE
 70
     1
  9
$QTEXTMODE
 70
     0
  9
$MIRRTEXT
 70
     1
  9
$DRAGMODE
 70
     2
  9
$LTSCALE
 40
1.0
  9
$OSMODE
 70
     0
  9
$ATTMODE
 70
     1
  9
$TEXTSIZE
 40
0.2
  9
$TRACEWID
 40
0.05
  9
$TEXTSTYLE
  7
STANDARD
  9
$CLAYER
  8
0
  9
$CELTYPE
  6
BYLAYER
  9
$CECOLOR
 62
   256
  9
$DIMSCALE
 40
1.0
  9
$DIMASZ
 40
0.18
  9
$DIMEXO
 40
0.0625
  9
$DIMDLI
 40
0.38
  9
$DIMRND
 40
0.0
  9
$DIMDLE
 40
0.0
  9
$DIMEXE
 40
0.18
  9
$DIMTP
 40
0.0
  9
$DIMTM
 40
0.0
  9
$DIMTXT
 40
0.18
  9
$DIMCEN
 40
0.09
  9
$DIMTSZ
 40
0.0
  9
$DIMTOL
 70
     0
  9
$DIMLIM
 70
     0
  9
$DIMTIH
 70
     1
  9
$DIMTOH
 70
     1
  9
$DIMSE1
 70
     0
  9
$DIMSE2
 70
     0
  9
$DIMTAD
 70
     0
  9
$DIMZIN
 70
     0
  9
$DIMBLK
  1

  9
$DIMASO
 70
     1
  9
$DIMSHO
 70
     1
  9
$DIMPOST
  1

  9
$DIMAPOST
  1

  9
$DIMALT
 70
     0
  9
$DIMALTD
 70
     2
  9
$DIMALTF
 40
25.4
  9
$DIMLFAC
 40
1.0
  9
$DIMTOFL
 70
     0
  9
$DIMTVP
 40
0.0
  9
$DIMTIX
 70
     0
  9
$DIMSOXD
 70
     0
  9
$DIMSAH
 70
     0
  9
$DIMBLK1
  1

  9
$DIMBLK2
  1

  9
$DIMSTYLE
  2
*UNNAMED
  9
$DIMCLRD
 70
     0
  9
$DIMCLRE
 70
     0
  9
$DIMCLRT
 70
     0
  9
$DIMTFAC
 40
1.0
  9
$DIMGAP
 40
0.09
  9
$LUNITS
 70
     2
  9
$LUPREC
 70
     4
  9
$AXISMODE
 70
     0
  9
$AXISUNIT
 10
0.0
 20
0.0
  9
$SKETCHINC
 40
0.1
  9
$FILLETRAD
 40
0.0
  9
$AUNITS
 70
     0
  9
$AUPREC
 70
     0
  9
$MENU
  1
acad
  9
$ELEVATION
 40
0.0
  9
$PELEVATION
 40
0.0
  9
$THICKNESS
 40
0.0
  9
$LIMCHECK
 70
     0
  9
$BLIPMODE
 70
     1
  9
$CHAMFERA
 40
0.0
  9
$CHAMFERB
 40
0.0
  9
$SKPOLY
 70
     0
  9
$TDCREATE
 40
2448315.373408102
  9
$TDUPDATE
 40
2448315.373408102
  9
$TDINDWG
 40
0.0000000000
  9
$TDUSRTIMER
 40
0.0000000000
  9
$USRTIMER
 70
     1
  9
$ANGBASE
 50
0.0
  9
$ANGDIR
 70
     0
  9
$PDMODE
 70
     0
  9
$PDSIZE
 40
0.0
  9
$PLINEWID
 40
0.0
  9
$COORDS
 70
     0
  9
$SPLFRAME
 70
     0
  9
$SPLINETYPE
 70
     6
  9
$SPLINESEGS
 70
     8
  9
$ATTDIA
 70
     0
  9
$ATTREQ
 70
     1
  9
$HANDLING
 70
     0
  9
$HANDSEED
  5
0
  9
$SURFTAB1
 70
     6
  9
$SURFTAB2
 70
     6
  9
$SURFTYPE
 70
     6
  9
$SURFU
 70
     6
  9
$SURFV
 70
     6
  9
$UCSNAME
  2

  9
$UCSORG
 10
0.0
 20
0.0
 30
0.0
  9
$UCSXDIR
 10
1.0
 20
0.0
 30
0.0
  9
$UCSYDIR
 10
0.0
 20
1.0
 30
0.0
  9
$PUCSNAME
  2

  9
$PUCSORG
 10
0.0
 20
0.0
 30
0.0
  9
$PUCSXDIR
 10
1.0
 20
0.0
 30
0.0
  9
$PUCSYDIR
 10
0.0
 20
1.0
 30
0.0
  9
$USERI1
 70
     0
  9
$USERI2
 70
     0
  9
$USERI3
 70
     0
  9
$USERI4
 70
     0
  9
$USERI5
 70
     0
  9
$USERR1
 40
0.0
  9
$USERR2
 40
0.0
  9
$USERR3
 40
0.0
  9
$USERR4
 40
0.0
  9
$USERR5
 40
0.0
  9
$WORLDVIEW
 70
     1
  9
$SHADEDGE
 70
     3
  9
$SHADEDIF
 70
    70
  9
$TILEMODE
 70
     1
  9
$MAXACTVP
 70
    16
  9
$PINSBASE
 10
0.0
 20
0.0
 30
0.0
  9
$PLIMCHECK
 70
     0
  9
$PEXTMIN
 10
1.000000E+20
 20
1.000000E+20
 30
1.000000E+20
  9
$PEXTMAX
 10
-1.000000E+20
 20
-1.000000E+20
 30
-1.000000E+20
  9
$PLIMMIN
 10
0.0
 20
0.0
  9
$PLIMMAX
 10
12.0
 20
9.0
  9
$UNITMODE
 70
     0
  9
$VISRETAIN
 70
     0
  0
ENDSEC
  0
SECTION
  2
TABLES
  0
TABLE
  2
LTYPE
 70
    1
  0
LTYPE
  2
CONTINUOUS
 70
    64
3
Solid line
 72
    65
 73
0
 40
0.000000
  0
ENDTAB
  0
TABLE
  2
LAYER
 70
    8
  0
LAYER
  2
0
 70
    64
 62
7
  6
CONTINUOUS
  0
LAYER
  2
1
 70
    64
 62
7
  6
CONTINUOUS
  0
LAYER
  2
7
 70
    64
 62
7
  6
CONTINUOUS
  0
LAYER
  2
8
 70
    64
 62
7
  6
CONTINUOUS
  0
LAYER
  2
9
 70
    64
 62
7
  6
CONTINUOUS
  0
LAYER
  2
22
 70
    64
 62
7
  6
CONTINUOUS
  0
LAYER
  2
25
 70
    64
 62
7
  6
CONTINUOUS
  0
LAYER
  2
0
 70
    64
 62
7
  6
CONTINUOUS
  0
ENDTAB
  0
TABLE
  2
STYLE
 70
    1
  0
STYLE
  2
ROMANC
70
     0
 40
0.0
 41
1.0
 50
0.0
 71
     0
 42
0.2
  3
ROMANC
  4

  0
ENDTAB
  0
ENDSEC
  0
SECTION
  2
BLOCKS
  0
ENDSEC
  0
SECTION
  2
ENTITIES
  0
TEXT
  8
0
  6
CONTINUOUS
 40
0.100000
 10
286.909000
 20
41.324000
  1
2
  7
ROMANC
  0
TEXT
  8
0
  6
CONTINUOUS
 40
0.300000
 10
283.926000
 20
41.768000
  1
ESCALA  1:50
  7
ROMANC
  0
POLYLINE
  8
0
  6
CONTINUOUS
 66
     1
 70
     1
  0
VERTEX
  8
0
  6
CONTINUOUS
 10
281.396000
 20
44.747000
  0
VERTEX
  8
0
  6
CONTINUOUS
 10
291.896000
 20
44.747000
  0
VERTEX
  8
0
  6
CONTINUOUS
 10
291.896000
 20
29.897000
  0
VERTEX
  8
0
  6
CONTINUOUS
 10
281.396000
 20
29.897000
  0
SEQEND
  8
0
  0
TEXT
  8
0
  6
CONTINUOUS
 40
0.300000
 10
283.926000
 20
42.381000
  1
TIPUS   T150B
  7
ROMANC
  0
TEXT
  8
0
  6
CONTINUOUS
 40
0.300000
 10
283.922000
 20
40.529000
  1
P = 47 dm
  7
ROMANC
  0
TEXT
  8
0
  6
CONTINUOUS
 40
0.300000
 10
283.945000
 20
41.099000
  1
S = 150 dm
  7
ROMANC
  0
LINE
  8
1
  6
CONTINUOUS
 10
285.579000
 20
33.457000
 11
285.279000
 21
33.457000
  0
ARC
  8
1
  6
CONTINUOUS
 10
285.779000
 20
33.457000
 40
0.200000
 50
180.000000
 51
360.000000
  0
TEXT
  8
1
  6
CONTINUOUS
 40
0.075000
 10
285.319000
 20
33.102000
  1
0.30
  7
ROMANC
  0
LINE
  8
1
  6
CONTINUOUS
 10
285.129000
 20
33.140000
 11
285.279000
 21
33.140000
  0
LINE
  8
1
  6
CONTINUOUS
 10
285.729000
 20
33.140000
 11
285.579000
 21
33.140000
  0
LINE
  8
1
  6
CONTINUOUS
 10
285.316000
 20
33.159000
 11
285.242000
 21
33.121000
  0
LINE
  8
1
  6
CONTINUOUS
 10
285.542000
 20
33.121000
 11
285.616000
 21
33.159000
  0
LINE
  8
1
  6
CONTINUOUS
 10
285.279000
 20
33.419000
 11
285.279000
 21
33.102000
  0
LINE
  8
1
  6
CONTINUOUS
 10
285.579000
 20
33.419000
 11
285.579000
 21
33.102000
  0
TEXT
  8
1
  6
CONTINUOUS
 40
0.075000
 10
285.657000
 20
32.946000
  1
0.40
  7
ROMANC
  0
LINE
  8
1
  6
CONTINUOUS
 10
285.429000
 20
32.983000
 11
285.579000
 21
32.983000
  0
LINE
  8
1
  6
CONTINUOUS
 10
286.129000
 20
32.983000
 11
285.979000
 21
32.983000
  0
LINE
  8
1
  6
CONTINUOUS
 10
285.616000
 20
33.002000
 11
285.542000
 21
32.964000
  0
LINE
  8
1
  6
CONTINUOUS
 10
285.942000
 20
32.964000
 11
286.016000
 21
33.002000
  0
LINE
  8
1
  6
CONTINUOUS
 10
285.579000
 20
33.419000
 11
285.579000
 21
32.945000
  0
LINE
  8
1
  6
CONTINUOUS
 10
285.979000
 20
33.419000
 11
285.979000
 21
32.945000
  0
LINE
  8
1
  6
CONTINUOUS
 10
286.279000
 20
33.457000
 11
285.979000
 21
33.457000
  0
LINE
  8
1
  6
CONTINUOUS
 10
286.379000
 20
34.257000
 11
286.279000
 21
33.457000
  0
TEXT
  8
1
  6
CONTINUOUS
 40
0.075000
 10
286.021000
 20
33.102000
  1
0.30
  7
ROMANC
  0
LINE
  8
1
  6
CONTINUOUS
 10
285.829000
 20
33.140000
 11
285.979000
 21
33.140000
  0
LINE
  8
1
  6
CONTINUOUS
 10
286.429000
 20
33.140000
 11
286.279000
 21
33.140000
  0
LINE
  8
1
  6
CONTINUOUS
 10
286.016000
 20
33.159000
 11
285.942000
 21
33.121000
  0
LINE
  8
1
  6
CONTINUOUS
 10
286.242000
 20
33.121000
 11
286.316000
 21
33.159000
  0
LINE
  8
1
  6
CONTINUOUS
 10
285.979000
 20
33.419000
 11
285.979000
 21
33.102000
  0
LINE
  8
1
  6
CONTINUOUS
 10
286.279000
 20
33.419000
 11
286.279000
 21
33.102000
  0
TEXT
  8
1
  6
CONTINUOUS
 40
0.075000
 10
286.526000
 20
33.586000
  1
0.20
 50
90.000000
  7
ROMANC
  0
LINE
  8
1
  6
CONTINUOUS
 10
286.488000
 20
33.107000
 11
286.488000
 21
33.257000
  0
LINE
  8
1
  6
CONTINUOUS
 10
286.488000
 20
33.548000
 11
286.488000
 21
33.457000
  0
LINE
  8
1
  6
CONTINUOUS
 10
286.469000
 20
33.294000
 11
286.507000
 21
33.220000
  0
LINE
  8
1
  6
CONTINUOUS
 10
286.507000
 20
33.420000
 11
286.469000
 21
33.494000
  0
LINE
  8
1
  6
CONTINUOUS
 10
285.817000
 20
33.257000
 11
286.526000
 21
33.257000
  0
LINE
  8
1
  6
CONTINUOUS
 10
286.317000
 20
33.457000
 11
286.526000
 21
33.457000
  0
ARC
  8
1
  6
CONTINUOUS
 10
285.779000
 20
34.257000
 40
0.600000
 50
0.000000
 51
180.000000
  0
TEXT
  8
1
  6
CONTINUOUS
 40
0.075000
 10
286.686000
 20
33.738000
  1
0.80
 50
90.000000
  7
ROMANC
  0
LINE
  8
1
  6
CONTINUOUS
 10
286.649000
 20
33.700000
 11
286.649000
 21
33.457000
  0
LINE
  8
1
  6
CONTINUOUS
 10
286.649000
 20
34.012000
 11
286.649000
 21
34.257000
  0
LINE
  8
1
  6
CONTINUOUS
 10
286.668000
 20
33.420000
 11
286.630000
 21
33.494000
  0
LINE
  8
1
  6
CONTINUOUS
 10
286.630000
 20
34.294000
 11
286.668000
 21
34.220000
  0
LINE
  8
1
  6
CONTINUOUS
 10
286.317000
 20
33.457000
 11
286.687000
 21
33.457000
  0
LINE
  8
1
  6
CONTINUOUS
 10
286.417000
 20
34.257000
 11
286.687000
 21
34.257000
  0
TEXT
  8
1
  6
CONTINUOUS
 40
0.075000
 10
286.686000
 20
34.438000
  1
0.60
 50
90.000000
  7
ROMANC
  0
LINE
  8
1
  6
CONTINUOUS
 10
286.649000
 20
34.107000
 11
286.649000
 21
34.257000
  0
LINE
  8
1
  6
CONTINUOUS
 10
286.649000
 20
35.007000
 11
286.649000
 21
34.857000
  0
LINE
  8
1
  6
CONTINUOUS
 10
286.630000
 20
34.294000
 11
286.668000
 21
34.220000
  0
LINE
  8
1
  6
CONTINUOUS
 10
286.668000
 20
34.820000
 11
286.630000
 21
34.894000
  0
LINE
  8
1
  6
CONTINUOUS
 10
285.817000
 20
34.857000
 11
286.687000
 21
34.857000
  0
TEXT
  8
1
  6
CONTINUOUS
 40
0.075000
 10
285.669000
 20
32.762000
  1
1.00
  7
ROMANC
  0
LINE
  8
1
  6
CONTINUOUS
 10
285.631000
 20
32.800000
 11
285.279000
 21
32.800000
  0
LINE
  8
1
  6
CONTINUOUS
 10
285.926000
 20
32.800000
 11
286.279000
 21
32.800000
  0
LINE
  8
1
  6
CONTINUOUS
 10
285.242000
 20
32.781000
 11
285.316000
 21
32.819000
  0
LINE
  8
1
  6
CONTINUOUS
 10
286.316000
 20
32.819000
 11
286.242000
 21
32.781000
  0
LINE
  8
1
  6
CONTINUOUS
 10
285.279000
 20
33.419000
 11
285.279000
 21
32.762000
  0
LINE
  8
1
  6
CONTINUOUS
 10
286.279000
 20
33.419000
 11
286.279000
 21
32.762000
  0
TEXT
  8
1
  6
CONTINUOUS
 40
0.075000
 10
286.874000
 20
33.947000
  1
1.60
 50
90.000000
  7
ROMANC
  0
LINE
  8
1
  6
CONTINUOUS
 10
286.837000
 20
33.909000
 11
286.837000
 21
33.257000
  0
LINE
  8
1
  6
CONTINUOUS
 10
286.837000
 20
34.204000
 11
286.837000
 21
34.857000
  0
LINE
  8
1
  6
CONTINUOUS
 10
286.856000
 20
33.220000
 11
286.818000
 21
33.294000
  0
LINE
  8
1
  6
CONTINUOUS
 10
286.818000
 20
34.894000
 11
286.856000
 21
34.820000
  0
LINE
  8
1
  6
CONTINUOUS
 10
285.817000
 20
33.257000
 11
286.875000
 21
33.257000
  0
LINE
  8
1
  6
CONTINUOUS
 10
285.817000
 20
34.857000
 11
286.875000
 21
34.857000
  0
LINE
  8
1
  6
CONTINUOUS
 10
285.279000
 20
33.457000
 11
285.179000
 21
34.257000
  0
TEXT
  8
1
  6
CONTINUOUS
 40
0.075000
 10
285.669000
 20
35.006000
  1
1.20
  7
ROMANC
  0
LINE
  8
1
  6
CONTINUOUS
 10
285.631000
 20
35.044000
 11
285.179000
 21
35.044000
  0
LINE
  8
1
  6
CONTINUOUS
 10
285.926000
 20
35.044000
 11
286.379000
 21
35.044000
  0
LINE
  8
1
  6
CONTINUOUS
 10
285.142000
 20
35.025000
 11
285.216000
 21
35.063000
  0
LINE
  8
1
  6
CONTINUOUS
 10
286.416000
 20
35.063000
 11
286.342000
 21
35.025000
  0
LINE
  8
1
  6
CONTINUOUS
 10
285.179000
 20
34.295000
 11
285.179000
 21
35.082000
  0
LINE
  8
1
  6
CONTINUOUS
 10
286.379000
 20
34.295000
 11
286.379000
 21
35.082000
  0
ARC
  8
1
  6
CONTINUOUS
 10
285.779000
 20
34.257000
 40
0.610000
 50
0.542989
 51
180.190386
  0
ARC
  8
1
  6
CONTINUOUS
 10
285.779000
 20
34.257000
 40
0.620000
 50
0.448053
 51
180.282822
  0
LINE
  8
1
  6
CONTINUOUS
 10
286.389000
 20
34.263000
 11
286.287000
 21
33.447000
  0
LINE
  8
1
  6
CONTINUOUS
 10
286.399000
 20
34.262000
 11
286.296000
 21
33.437000
  0
LINE
  8
1
  6
CONTINUOUS
 10
286.287000
 20
33.447000
 11
285.989000
 21
33.447000
  0
LINE
  8
1
  6
CONTINUOUS
 10
286.296000
 20
33.437000
 11
285.998000
 21
33.437000
  0
ARC
  8
1
  6
CONTINUOUS
 10
285.779000
 20
33.457000
 40
0.210000
 50
182.729403
 51
357.270597
  0
ARC
  8
1
  6
CONTINUOUS
 10
285.779000
 20
33.457000
 40
0.220000
 50
185.215908
 51
354.784092
  0
LINE
  8
1
  6
CONTINUOUS
 10
285.569000
 20
33.447000
 11
285.270000
 21
33.447000
  0
LINE
  8
1
  6
CONTINUOUS
 10
285.560000
 20
33.437000
 11
285.261000
 21
33.437000
  0
LINE
  8
1
  6
CONTINUOUS
 10
285.270000
 20
33.447000
 11
285.169000
 21
34.255000
  0
LINE
  8
1
  6
CONTINUOUS
 10
285.261000
 20
33.437000
 11
285.159000
 21
34.254000
  0
ENDSEC
  0
EOF
