  0
SECTION
  2
HEADER
  9
$ACADVER
  1
AC1009
  9
$INSBASE
 10
0.0
 20
0.0
 30
0.0
  9
$EXTMIN
 10
281.396000
 20
29.897000
 30
-2147483.648000
  9
$EXTMAX
 10
291.896000
 20
44.747000
 30
0.000000
  9
$LIMMIN
 10
280.396000
 20
28.897000
  9
$LIMMAX
 10
292.896000
 20
43.747000
  9
$ORTHOMODE
 70
     0
  9
$REGENMODE
 70
     1
  9
$FILLMODE
 70
     1
  9
$QTEXTMODE
 70
     0
  9
$MIRRTEXT
 70
     1
  9
$DRAGMODE
 70
     2
  9
$LTSCALE
 40
1.0
  9
$OSMODE
 70
     0
  9
$ATTMODE
 70
     1
  9
$TEXTSIZE
 40
0.2
  9
$TRACEWID
 40
0.05
  9
$TEXTSTYLE
  7
STANDARD
  9
$CLAYER
  8
0
  9
$CELTYPE
  6
BYLAYER
  9
$CECOLOR
 62
   256
  9
$DIMSCALE
 40
1.0
  9
$DIMASZ
 40
0.18
  9
$DIMEXO
 40
0.0625
  9
$DIMDLI
 40
0.38
  9
$DIMRND
 40
0.0
  9
$DIMDLE
 40
0.0
  9
$DIMEXE
 40
0.18
  9
$DIMTP
 40
0.0
  9
$DIMTM
 40
0.0
  9
$DIMTXT
 40
0.18
  9
$DIMCEN
 40
0.09
  9
$DIMTSZ
 40
0.0
  9
$DIMTOL
 70
     0
  9
$DIMLIM
 70
     0
  9
$DIMTIH
 70
     1
  9
$DIMTOH
 70
     1
  9
$DIMSE1
 70
     0
  9
$DIMSE2
 70
     0
  9
$DIMTAD
 70
     0
  9
$DIMZIN
 70
     0
  9
$DIMBLK
  1

  9
$DIMASO
 70
     1
  9
$DIMSHO
 70
     1
  9
$DIMPOST
  1

  9
$DIMAPOST
  1

  9
$DIMALT
 70
     0
  9
$DIMALTD
 70
     2
  9
$DIMALTF
 40
25.4
  9
$DIMLFAC
 40
1.0
  9
$DIMTOFL
 70
     0
  9
$DIMTVP
 40
0.0
  9
$DIMTIX
 70
     0
  9
$DIMSOXD
 70
     0
  9
$DIMSAH
 70
     0
  9
$DIMBLK1
  1

  9
$DIMBLK2
  1

  9
$DIMSTYLE
  2
*UNNAMED
  9
$DIMCLRD
 70
     0
  9
$DIMCLRE
 70
     0
  9
$DIMCLRT
 70
     0
  9
$DIMTFAC
 40
1.0
  9
$DIMGAP
 40
0.09
  9
$LUNITS
 70
     2
  9
$LUPREC
 70
     4
  9
$AXISMODE
 70
     0
  9
$AXISUNIT
 10
0.0
 20
0.0
  9
$SKETCHINC
 40
0.1
  9
$FILLETRAD
 40
0.0
  9
$AUNITS
 70
     0
  9
$AUPREC
 70
     0
  9
$MENU
  1
acad
  9
$ELEVATION
 40
0.0
  9
$PELEVATION
 40
0.0
  9
$THICKNESS
 40
0.0
  9
$LIMCHECK
 70
     0
  9
$BLIPMODE
 70
     1
  9
$CHAMFERA
 40
0.0
  9
$CHAMFERB
 40
0.0
  9
$SKPOLY
 70
     0
  9
$TDCREATE
 40
2448315.373408102
  9
$TDUPDATE
 40
2448315.373408102
  9
$TDINDWG
 40
0.0000000000
  9
$TDUSRTIMER
 40
0.0000000000
  9
$USRTIMER
 70
     1
  9
$ANGBASE
 50
0.0
  9
$ANGDIR
 70
     0
  9
$PDMODE
 70
     0
  9
$PDSIZE
 40
0.0
  9
$PLINEWID
 40
0.0
  9
$COORDS
 70
     0
  9
$SPLFRAME
 70
     0
  9
$SPLINETYPE
 70
     6
  9
$SPLINESEGS
 70
     8
  9
$ATTDIA
 70
     0
  9
$ATTREQ
 70
     1
  9
$HANDLING
 70
     0
  9
$HANDSEED
  5
0
  9
$SURFTAB1
 70
     6
  9
$SURFTAB2
 70
     6
  9
$SURFTYPE
 70
     6
  9
$SURFU
 70
     6
  9
$SURFV
 70
     6
  9
$UCSNAME
  2

  9
$UCSORG
 10
0.0
 20
0.0
 30
0.0
  9
$UCSXDIR
 10
1.0
 20
0.0
 30
0.0
  9
$UCSYDIR
 10
0.0
 20
1.0
 30
0.0
  9
$PUCSNAME
  2

  9
$PUCSORG
 10
0.0
 20
0.0
 30
0.0
  9
$PUCSXDIR
 10
1.0
 20
0.0
 30
0.0
  9
$PUCSYDIR
 10
0.0
 20
1.0
 30
0.0
  9
$USERI1
 70
     0
  9
$USERI2
 70
     0
  9
$USERI3
 70
     0
  9
$USERI4
 70
     0
  9
$USERI5
 70
     0
  9
$USERR1
 40
0.0
  9
$USERR2
 40
0.0
  9
$USERR3
 40
0.0
  9
$USERR4
 40
0.0
  9
$USERR5
 40
0.0
  9
$WORLDVIEW
 70
     1
  9
$SHADEDGE
 70
     3
  9
$SHADEDIF
 70
    70
  9
$TILEMODE
 70
     1
  9
$MAXACTVP
 70
    16
  9
$PINSBASE
 10
0.0
 20
0.0
 30
0.0
  9
$PLIMCHECK
 70
     0
  9
$PEXTMIN
 10
1.000000E+20
 20
1.000000E+20
 30
1.000000E+20
  9
$PEXTMAX
 10
-1.000000E+20
 20
-1.000000E+20
 30
-1.000000E+20
  9
$PLIMMIN
 10
0.0
 20
0.0
  9
$PLIMMAX
 10
12.0
 20
9.0
  9
$UNITMODE
 70
     0
  9
$VISRETAIN
 70
     0
  0
ENDSEC
  0
SECTION
  2
TABLES
  0
TABLE
  2
LTYPE
 70
    1
  0
LTYPE
  2
CONTINUOUS
 70
    64
3
Solid line
 72
    65
 73
0
 40
0.000000
  0
ENDTAB
  0
TABLE
  2
LAYER
 70
    8
  0
LAYER
  2
0
 70
    64
 62
7
  6
CONTINUOUS
  0
LAYER
  2
1
 70
    64
 62
7
  6
CONTINUOUS
  0
LAYER
  2
7
 70
    64
 62
7
  6
CONTINUOUS
  0
LAYER
  2
8
 70
    64
 62
7
  6
CONTINUOUS
  0
LAYER
  2
9
 70
    64
 62
7
  6
CONTINUOUS
  0
LAYER
  2
22
 70
    64
 62
7
  6
CONTINUOUS
  0
LAYER
  2
25
 70
    64
 62
7
  6
CONTINUOUS
  0
LAYER
  2
0
 70
    64
 62
7
  6
CONTINUOUS
  0
ENDTAB
  0
TABLE
  2
STYLE
 70
    1
  0
STYLE
  2
ROMANC
70
     0
 40
0.0
 41
1.0
 50
0.0
 71
     0
 42
0.2
  3
ROMANC
  4

  0
ENDTAB
  0
ENDSEC
  0
SECTION
  2
BLOCKS
  0
ENDSEC
  0
SECTION
  2
ENTITIES
  0
TEXT
  8
0
  6
CONTINUOUS
 40
0.100000
 10
286.909000
 20
41.324000
  1
2
  7
ROMANC
  0
TEXT
  8
0
  6
CONTINUOUS
 40
0.300000
 10
283.926000
 20
41.768000
  1
ESCALA  1:50
  7
ROMANC
  0
POLYLINE
  8
0
  6
CONTINUOUS
 66
     1
 70
     1
  0
VERTEX
  8
0
  6
CONTINUOUS
 10
281.396000
 20
44.747000
  0
VERTEX
  8
0
  6
CONTINUOUS
 10
291.896000
 20
44.747000
  0
VERTEX
  8
0
  6
CONTINUOUS
 10
291.896000
 20
29.897000
  0
VERTEX
  8
0
  6
CONTINUOUS
 10
281.396000
 20
29.897000
  0
SEQEND
  8
0
  0
TEXT
  8
0
  6
CONTINUOUS
 40
0.300000
 10
283.926000
 20
42.381000
  1
TIPUS   T148
  7
ROMANC
  0
TEXT
  8
0
  6
CONTINUOUS
 40
0.300000
 10
283.922000
 20
40.529000
  1
P = 46 dm
  7
ROMANC
  0
TEXT
  8
0
  6
CONTINUOUS
 40
0.300000
 10
283.945000
 20
41.099000
  1
S = 148 dm
  7
ROMANC
  0
LINE
  8
1
  6
CONTINUOUS
 10
285.491000
 20
33.722000
 11
285.351000
 21
33.722000
  0
ARC
  8
1
  6
CONTINUOUS
 10
285.691000
 20
33.780333
 40
0.208333
 50
196.260206
 51
343.739797
  0
TEXT
  8
1
  6
CONTINUOUS
 40
0.075000
 10
284.938000
 20
33.344000
  1
0.14
  7
ROMANC
  0
LINE
  8
1
  6
CONTINUOUS
 10
285.278000
 20
33.382000
 11
285.351000
 21
33.382000
  0
LINE
  8
1
  6
CONTINUOUS
 10
285.641000
 20
33.382000
 11
285.491000
 21
33.382000
  0
LINE
  8
1
  6
CONTINUOUS
 10
285.388000
 20
33.401000
 11
285.314000
 21
33.363000
  0
LINE
  8
1
  6
CONTINUOUS
 10
285.454000
 20
33.363000
 11
285.528000
 21
33.401000
  0
LINE
  8
1
  6
CONTINUOUS
 10
285.351000
 20
33.684000
 11
285.351000
 21
33.344000
  0
LINE
  8
1
  6
CONTINUOUS
 10
285.491000
 20
33.684000
 11
285.491000
 21
33.344000
  0
LINE
  8
1
  6
CONTINUOUS
 10
286.031000
 20
33.722000
 11
285.891000
 21
33.722000
  0
TEXT
  8
1
  6
CONTINUOUS
 40
0.075000
 10
285.569000
 20
33.246000
  1
0.40
  7
ROMANC
  0
LINE
  8
1
  6
CONTINUOUS
 10
285.341000
 20
33.284000
 11
285.491000
 21
33.284000
  0
LINE
  8
1
  6
CONTINUOUS
 10
286.041000
 20
33.284000
 11
285.891000
 21
33.284000
  0
LINE
  8
1
  6
CONTINUOUS
 10
285.528000
 20
33.303000
 11
285.454000
 21
33.265000
  0
LINE
  8
1
  6
CONTINUOUS
 10
285.854000
 20
33.265000
 11
285.928000
 21
33.303000
  0
LINE
  8
1
  6
CONTINUOUS
 10
285.491000
 20
33.684000
 11
285.491000
 21
33.246000
  0
LINE
  8
1
  6
CONTINUOUS
 10
285.891000
 20
33.684000
 11
285.891000
 21
33.246000
  0
ARC
  8
1
  6
CONTINUOUS
 10
283.850058
 20
34.702048
 40
2.391025
 50
-24.197675
 51
0.478114
  0
TEXT
  8
1
  6
CONTINUOUS
 40
0.075000
 10
286.268000
 20
33.344000
  1
0.14
  7
ROMANC
  0
LINE
  8
1
  6
CONTINUOUS
 10
285.741000
 20
33.382000
 11
285.891000
 21
33.382000
  0
LINE
  8
1
  6
CONTINUOUS
 10
286.230000
 20
33.382000
 11
286.031000
 21
33.382000
  0
LINE
  8
1
  6
CONTINUOUS
 10
285.928000
 20
33.401000
 11
285.854000
 21
33.363000
  0
LINE
  8
1
  6
CONTINUOUS
 10
285.994000
 20
33.363000
 11
286.068000
 21
33.401000
  0
LINE
  8
1
  6
CONTINUOUS
 10
285.891000
 20
33.684000
 11
285.891000
 21
33.344000
  0
LINE
  8
1
  6
CONTINUOUS
 10
286.031000
 20
33.684000
 11
286.031000
 21
33.344000
  0
ARC
  8
1
  6
CONTINUOUS
 10
287.531942
 20
34.702048
 40
2.391025
 50
179.521886
 51
204.197675
  0
TEXT
  8
1
  6
CONTINUOUS
 40
0.075000
 10
285.572000
 20
33.102000
  1
0.68
  7
ROMANC
  0
LINE
  8
1
  6
CONTINUOUS
 10
285.534000
 20
33.140000
 11
285.351000
 21
33.140000
  0
LINE
  8
1
  6
CONTINUOUS
 10
285.846000
 20
33.140000
 11
286.031000
 21
33.140000
  0
LINE
  8
1
  6
CONTINUOUS
 10
285.314000
 20
33.121000
 11
285.388000
 21
33.159000
  0
LINE
  8
1
  6
CONTINUOUS
 10
286.068000
 20
33.159000
 11
285.994000
 21
33.121000
  0
LINE
  8
1
  6
CONTINUOUS
 10
285.351000
 20
33.684000
 11
285.351000
 21
33.102000
  0
LINE
  8
1
  6
CONTINUOUS
 10
286.031000
 20
33.684000
 11
286.031000
 21
33.102000
  0
TEXT
  8
1
  6
CONTINUOUS
 40
0.075000
 10
286.284000
 20
33.879000
  1
0.15
 50
90.000000
  7
ROMANC
  0
LINE
  8
1
  6
CONTINUOUS
 10
286.247000
 20
33.422000
 11
286.247000
 21
33.572000
  0
LINE
  8
1
  6
CONTINUOUS
 10
286.247000
 20
33.841000
 11
286.247000
 21
33.722000
  0
LINE
  8
1
  6
CONTINUOUS
 10
286.228000
 20
33.610000
 11
286.266000
 21
33.534000
  0
LINE
  8
1
  6
CONTINUOUS
 10
286.266000
 20
33.684000
 11
286.228000
 21
33.760000
  0
LINE
  8
1
  6
CONTINUOUS
 10
285.729000
 20
33.572000
 11
286.285000
 21
33.572000
  0
LINE
  8
1
  6
CONTINUOUS
 10
286.069000
 20
33.722000
 11
286.285000
 21
33.722000
  0
ARC
  8
1
  6
CONTINUOUS
 10
285.691000
 20
34.722000
 40
0.550000
 50
0.000000
 51
180.000000
  0
TEXT
  8
1
  6
CONTINUOUS
 40
0.075000
 10
286.420000
 20
34.112000
  1
1.00
 50
90.000000
  7
ROMANC
  0
LINE
  8
1
  6
CONTINUOUS
 10
286.383000
 20
34.074000
 11
286.383000
 21
33.722000
  0
LINE
  8
1
  6
CONTINUOUS
 10
286.383000
 20
34.369000
 11
286.383000
 21
34.722000
  0
LINE
  8
1
  6
CONTINUOUS
 10
286.402000
 20
33.684000
 11
286.364000
 21
33.760000
  0
LINE
  8
1
  6
CONTINUOUS
 10
286.364000
 20
34.760000
 11
286.402000
 21
34.684000
  0
LINE
  8
1
  6
CONTINUOUS
 10
286.069000
 20
33.722000
 11
286.421000
 21
33.722000
  0
LINE
  8
1
  6
CONTINUOUS
 10
286.279000
 20
34.722000
 11
286.421000
 21
34.722000
  0
TEXT
  8
1
  6
CONTINUOUS
 40
0.075000
 10
286.420000
 20
34.878000
  1
0.55
 50
90.000000
  7
ROMANC
  0
LINE
  8
1
  6
CONTINUOUS
 10
286.383000
 20
34.572000
 11
286.383000
 21
34.722000
  0
LINE
  8
1
  6
CONTINUOUS
 10
286.383000
 20
35.422000
 11
286.383000
 21
35.272000
  0
LINE
  8
1
  6
CONTINUOUS
 10
286.364000
 20
34.760000
 11
286.402000
 21
34.684000
  0
LINE
  8
1
  6
CONTINUOUS
 10
286.402000
 20
35.234000
 11
286.364000
 21
35.310000
  0
LINE
  8
1
  6
CONTINUOUS
 10
285.729000
 20
35.272000
 11
286.421000
 21
35.272000
  0
TEXT
  8
1
  6
CONTINUOUS
 40
0.075000
 10
286.560000
 20
34.312000
  1
1.70
 50
90.000000
  7
ROMANC
  0
LINE
  8
1
  6
CONTINUOUS
 10
286.522000
 20
34.274000
 11
286.522000
 21
33.572000
  0
LINE
  8
1
  6
CONTINUOUS
 10
286.522000
 20
34.569000
 11
286.522000
 21
35.272000
  0
LINE
  8
1
  6
CONTINUOUS
 10
286.541000
 20
33.534000
 11
286.503000
 21
33.610000
  0
LINE
  8
1
  6
CONTINUOUS
 10
286.503000
 20
35.310000
 11
286.541000
 21
35.234000
  0
LINE
  8
1
  6
CONTINUOUS
 10
285.729000
 20
33.572000
 11
286.560000
 21
33.572000
  0
LINE
  8
1
  6
CONTINUOUS
 10
285.729000
 20
35.272000
 11
286.560000
 21
35.272000
  0
TEXT
  8
1
  6
CONTINUOUS
 40
0.075000
 10
285.590000
 20
35.380000
  1
1.10
  7
ROMANC
  0
LINE
  8
1
  6
CONTINUOUS
 10
285.552000
 20
35.418000
 11
285.141000
 21
35.418000
  0
LINE
  8
1
  6
CONTINUOUS
 10
285.829000
 20
35.418000
 11
286.241000
 21
35.418000
  0
LINE
  8
1
  6
CONTINUOUS
 10
285.104000
 20
35.399000
 11
285.178000
 21
35.437000
  0
LINE
  8
1
  6
CONTINUOUS
 10
286.278000
 20
35.437000
 11
286.204000
 21
35.399000
  0
LINE
  8
1
  6
CONTINUOUS
 10
285.141000
 20
34.760000
 11
285.141000
 21
35.456000
  0
LINE
  8
1
  6
CONTINUOUS
 10
286.241000
 20
34.760000
 11
286.241000
 21
35.456000
  0
ARC
  8
1
  6
CONTINUOUS
 10
285.691000
 20
34.722000
 40
0.560000
 50
0.000000
 51
180.000000
  0
ARC
  8
1
  6
CONTINUOUS
 10
285.691000
 20
34.722000
 40
0.570000
 50
0.000000
 51
180.000000
  0
ARC
  8
1
  6
CONTINUOUS
 10
283.850058
 20
34.702048
 40
2.401025
 50
-24.352150
 51
0.478114
  0
ARC
  8
1
  6
CONTINUOUS
 10
283.850058
 20
34.702048
 40
2.411025
 50
-24.505533
 51
0.478114
  0
ARC
  8
1
  6
CONTINUOUS
 10
287.531942
 20
34.702048
 40
2.401025
 50
179.521886
 51
204.352150
  0
ARC
  8
1
  6
CONTINUOUS
 10
287.531942
 20
34.702048
 40
2.411025
 50
179.521886
 51
204.505533
  0
LINE
  8
1
  6
CONTINUOUS
 10
285.484000
 20
33.712000
 11
285.345000
 21
33.712000
  0
LINE
  8
1
  6
CONTINUOUS
 10
285.477000
 20
33.702000
 11
285.338000
 21
33.702000
  0
ARC
  8
1
  6
CONTINUOUS
 10
285.691000
 20
33.780333
 40
0.218333
 50
198.238736
 51
341.761264
  0
ARC
  8
1
  6
CONTINUOUS
 10
285.691000
 20
33.780333
 40
0.228333
 50
200.063764
 51
339.936236
  0
LINE
  8
1
  6
CONTINUOUS
 10
286.037000
 20
33.712000
 11
285.898000
 21
33.712000
  0
LINE
  8
1
  6
CONTINUOUS
 10
286.044000
 20
33.702000
 11
285.905000
 21
33.702000
  0
ENDSEC
  0
EOF
